Your One-Stop Source For
Music Lyrics
Bass and Guitar Tabs
and More...
Music Lyrics Bass and Guitar Tabs

 

The Tabs Are Below

Learn To Read Tab
Chords Handbook
Corrections & Additions
Get Official Tab
Cure tabs @ 911Tabs

Band: The Cure

Song: Pictures Of you

Tuning: Standard

 

Riff 1

Approx. time-0:01

G:--------------------------------------------------------------

D:--------7----7--------7\9-9-9--------9----9--------9\11-11-11-

A:-7--7-7----7----7-7-7---------9--9-9----9----9-9-9------------

E:--------------------------------------------------------------

 

Riff 2

Approx. time-1:31

G:------------------------9-9-9-9-7----------------------9-9-9-9-

D:-7------------------------------0--0-0-0--0-0--0-0-0-0---------

A:-0--0-0-0--0-0--0-0-0-0----------------------------------------

E:---------------------------------------------------------------

 

Riff 3

Approx. time-4:30

G:---------------------------------------------------9-9-9-9-

D:------------------------------0--0-0-0--0-0--0-0-0---------

A:-7--7-7-7--7-7--7-7-7-9-9-9-9------------------------------

E:-----------------------------------------------------------

 

Riff 4

Approx. time-5:59

G:---------------------------------------------------------

D:---------------------------------------------------------

A:-0--0-0-0--0-0--0-0--0-0-0-0-2--2-2-2--2-2--2-2--2-2-2-2-

E:---------------------------------------------------------

 

G:---------------------------------------------------------

D:---------------------------------------------------------

A:-4--4-4-4--4-4--4-4--4-4-4-4-5--5-5-5--5-5--5-5--5-5-5-5-

E:---------------------------------------------------------

 

G:---------------------------------------------------------

D:---------------------------------------------------------

A:-4--4-4-4--4-4--4-4--4-4-4-4-5--5-5-5--5-5--5-5--5-5-5-5-

E:---------------------------------------------------------

 

G:---------------------------------------------------------|-----------

D:---------------------------------------------------------|-----------

A:-7--7-7-7--7-7--7-7--7-7-7-7-9--9-9-9--9-9--9-9--9-9-9-9-|-12--------

E:---------------------------------------------------------|-----------

 

 

Return to my to my Cure bass tabs page

The Tablature is Copyright its respective owners.

Sign Up For My Newsletter
Subscribe | Unsubscribe

Site Map | Disclaimer | Privacy Policy | Media Kit | Submissions/Corrections

Website © 2000-2014 mattsmusicpage.com. All rights reserved.

Legal & DMCA: Matt's Music Page has been providing lyrics and tabs in a legal way, paying royalties each year to a few organizations. Then, all lyrics and tabs were removed from the site. Now, there's a new owner to the site, which purchased it August 26, 2014, and he is in negotiation to obtain licensing from BMI at the moment. If you have a specific DMCA request -- please do not hesitate to contact me via the contact button on top. I will do my very best to keep this site fully legal.

Get our toolbar!