Your One-Stop Source For
Music Lyrics
Bass and Guitar Tabs
and More...
Music Lyrics Bass and Guitar Tabs

 

The Tabs Are Below

Learn To Read Tab
Chords Handbook
Corrections & Additions
Get Official Tab
Cure tabs @ 911Tabs

 

Here is the tab for Club America.

Club America

Artist: The Cure

 

Transcribed by Kyle Ford

26-5-99

As heard on the album WILD MOOD SWINGS

 

 

Riff For Intro and Instrumetal

||---------------------------------|----------------------------------------

||-------------------5-------5/9---|-------------------5-------5---9--------

||---0-------0---0-----------------|---5-------5---5------------------------

||---------------------------------|----------------------------------------

 

 

Riff for Vocals and stuff

--------||-----------------------||-----------------------------------------

7---9---||-----------------------||-----------------------9\5---5-----------

--------||-----------------------||-------0-------0---0---------------------

--------||-----------------------||-----------------------------------------

 

 

Pre-Chorus

----|---------------------------------------||-----------||-----------------

5---|-------------------5-------5/7---7/9---||-----------||*----------------

----|---5-------5---5-----------------------||-----------||*----------------

----|---------------------------------------||-----------||----0---0--------

 

 

2x

------------------------|------------------------------------||-------------

------------------------|-----------------------------------*||-------------

 

------------------------|-----------------------------------*||-------------

0---0---0---0---0---0---|---8---8---8---8---8---8---8---8----||-------------

 

 

Chorus

----||------------------------------------------------------|---------------

----||*-----------------------------------------------------|---------------

----||*-----------------------------------------------------|---------------

----||----6-----------6---6-----------6-------6---6/1-------|---8-----------

 

 

4x

-------------------------------||-------------------------------------------

------------------------------*||-------------------------------------------

------------------------------*||-------------------------------------------

8---8-------8-------8---8/1----||-------------------------------------------

 

 

 

* This is a simple song. Use a little distortion to give it some kick like

the Cure does in the recording. You are free to fool around with the licks,

heaven knows this is only a synopsis of what is actually going on underneath

all those guiar effects.

============================================================================

== TABLATURE EXPLANATION ==

============================================================================

 

---------- ---------- ----t---

----5h8--- Hammeron ----(8)--- Ghost ----6--- Tap

---------- ---------- Note --------

----5p8--- Pulloff ---------- --------

 

---------- ---------- -----p--

----5/8--- Slide Up -----x---- Dead -----7-- Pop

---------- ---------- Note --s-----

----5\8--- Slide Down ---------- --5----- Slap

 

---------- ||------|| Repeat --------

----5~~~-- Vibrato ||*----*|| ---5^--- Bend

---------- ||*----*|| --------

---------- ||------|| --------

 

---------- ---------- --------

-4:------- Time ---------- --------

-4:------- Signature ---------- --------

---------- ---------- --------

 

Rhythm:

w = whole note W = dotted whole

h = half note H = dotted half

q = quarter note Q = dotted quarter

e = eighth note E = dotted eighth

s = sixteenth note S = dotted sixteenth

t = 32nd note T = dotted 32nd

x = 64th note X = dotted 64th

^ = triplet

 

Return to my to my Cure bass tabs page

The Tablature is Copyright its respective owners.

Sign Up For My Newsletter
Subscribe | Unsubscribe

Site Map | Disclaimer | Privacy Policy | Media Kit | Submissions/Corrections

Website © 2000-2014 mattsmusicpage.com. All rights reserved.

Legal & DMCA: Matt's Music Page has been providing lyrics and tabs in a legal way, paying royalties each year to a few organizations. Then, all lyrics and tabs were removed from the site. Now, there's a new owner to the site, which purchased it August 26, 2014, and he is in negotiation to obtain licensing from BMI at the moment. If you have a specific DMCA request -- please do not hesitate to contact me via the contact button on top. I will do my very best to keep this site fully legal.

Get our toolbar!

 

Hard Rock Pin Las Vegas 4th of july red white and blue guitar
$5.0
Hard Rock Pin Las Vegas 4th of july red white and blue guitar picture


Hard Rock Pin Hollywood Fl Bell Girl with dice luggage and guitar
$5.0
Hard Rock Pin Hollywood Fl Bell Girl with dice luggage and guitar picture


Hard Rock Pin Las Vegas King of Clubs Guitar rare only 3 lines of info on back
$5.0
Hard Rock Pin Las Vegas King of Clubs Guitar rare only 3 lines of info on back picture


Hard Rock Pin Edmonton guitar pin
$5.0
Hard Rock Pin Edmonton guitar pin picture


Lladro Guitar Boy #4614 - Beautiful Piece of Lladro
$109.0
Lladro Guitar Boy #4614 - Beautiful Piece of Lladro picture