Your One-Stop Source For
Music Lyrics
Bass and Guitar Tabs
and More...
Music Lyrics Bass and Guitar Tabs

 

The Crossfade Tabs Are Below

Learn To Read Tab
Chords Handbook
Corrections & Additions
Get Official Tab
Crossfade tabs @ 911Tabs

No Giving Up - Crossfade

-------------------------------------------------------------------------------

Tabbed by: Mike Mirabella

 

Tuning: Standard (7 string)

Low To High: B,E,A,D,G,B,E

 

 

Intro:

e|--------------------------------------------|

B|--------------------------------------------|

G|--------------------------------------------|

D|--4----4--4--4--4--4----7----7--7--7--7--7--|

A|--4----4--4--4--4--4----5----5--5--5--5--5--|

E|--2----2--2--2--2--2----5----5--5--5--5--5--|

B|--------------------------------------------|

 

e|--------------------------------------------|

B|--------------------------------------------|

G|--------------------------------------------|

D|--------------------------------------------|

A|--2--2----2--2----2--2----2--2-----5--4-----|

E|--2--2----2--2----2--2----2--2-----------5--|

B|--0--0----0--0----0--0----0--0--------------|

 

e|--------------------------------------------|

B|--------------------------------------------|

G|--------------------------------------------|

D|--4----4--4--4--4--4----7----7--7--7--7--7--|

A|--4----4--4--4--4--4----5----5--5--5--5--5--|

E|--2----2--2--2--2--2----5----5--5--5--5--5--|

B|--------------------------------------------|

 

e|--------------------------------------------|

B|--------------------------------------------|

G|--------------------------------------------|

D|--------------------------------------------|

A|--2--2----2--2----2--2----2--2--------------|

E|--2--2----2--2----2--2----2--2--------------|

B|--0--0----0--0----0--0----0--0--------------|

 

 

 

Verse:

e|-----------2--------------------------------------------|

B|-------------------------2----------0-------------0-----|

G|----------------------4----------------6-------------6--|

D|--------4----------2-------------4-------------4--------|Play 7X

A|-----4------------------------2-------------2-----------|

E|--2-------------0---------------------------------------|

B|--------------------------------------------------------|

 

e|-----------2--------------------------------------------|

B|-------------------------2------------------------------|

G|----------------------4-------4--4----4--4----4--4------|

D|--------4----------2----------4--4----4--4----4--4------|

A|-----4------------------------2--2----2--2----2--2------|

E|--2-------------0---------------------------------------|

B|--------------------------------------------------------|

 

 

 

Chorus:

e|--------------------------------------------|

B|--------------------------------------------|

G|--------------------------------------------|

D|--4----4--4--4--4--4----7----7--7--7--7--7--|

A|--4----4--4--4--4--4----5----5--5--5--5--5--|

E|--2----2--2--2--2--2----5----5--5--5--5--5--|

B|--------------------------------------------|

 

e|--------------------------------------------|

B|--------------------------------------------|

G|--------------------------------------------|

D|--------------------------------------------|Repeat last two lines

A|--2--2----2--2----2--2----2--2-----5--4-----|

E|--2--2----2--2----2--2----2--2-----------5--|

B|--0--0----0--0----0--0----0--0--------------|

 

 

e|--------------------------------------------|

B|--------------------------------------------|

G|--------------------------------------------|

D|--4----4--4--4--4--4----7----7--7--7--7--7--|

A|--4----4--4--4--4--4----5----5--5--5--5--5--|

E|--2----2--2--2--2--2----5----5--5--5--5--5--|

B|--------------------------------------------|

 

e|--------------------------------------------|

B|--------------------------------------------|

G|--------------------------------------------|

D|--------------------------------------------|Repeat last two lines

A|--2--2----2--2----2--2----2--2----2--2------|

E|--2--2----2--2----2--2----2--2----2--2------|

B|--0--0----0--0----0--0----0--0----0--0------|

 

 

 

Verse

 

Chorus

 

 

e|---------------------------------------------------|

B|--------9----10------------------------------------|

G|--11---------------9-p-6--6----6—-6b---------------|

D|--------6----7----------------------------9—-7-—6--|Play 2X

A|--9------------------------------------------------|

E|---------------------------------------------------|

B|---------------------------------------------------|

 

 

Verse

 

 

Chorus (Different Rhythm):

e|---------------------------------------------------------------------|

B|---------------------------------------------------------------------|

G|---------------------------------------------------------------------|

D|--4------4----4----7------7----7-------------------------------------|Play 4X

A|--4------4----4----5------5----5----2------2----2------2----5--4-----|

E|--2------2----2----5------5----5----2------2----2------2----------5--|

B|------------------------------------0------0----0------0-------------|

 

 

Intro

 

 

 

| / slide up

| \ slide down

| h hammer-on

| p pull-off

| ~ vibrato

| + harmonic

| x Mute note

 

Return to my Crossfade Guitar Tabs page

The Tablature is Copyright its respective owners.

Sign Up For My Newsletter
Subscribe | Unsubscribe

Site Map | Disclaimer | Privacy Policy | Media Kit | Submissions/Corrections

Website © 2000-2014 mattsmusicpage.com. All rights reserved.

Legal & DMCA: Matt's Music Page has been providing lyrics and tabs in a legal way, paying royalties each year to a few organizations. Then, all lyrics and tabs were removed from the site. Now, there's a new owner to the site, which purchased it August 26, 2014, and he is in negotiation to obtain licensing from BMI at the moment. If you have a specific DMCA request -- please do not hesitate to contact me via the contact button on top. I will do my very best to keep this site fully legal.

Get our toolbar!