Your One-Stop Source For
Music Lyrics
Bass and Guitar Tabs
and More...
Music Lyrics Bass and Guitar Tabs

 

The Tabs Are Below

Learn To Read Tab
Chords Handbook
Corrections & Additions
Get Official Tab
Crossfade tabs @ 911Tabs

Song: Cold

Band: Crossfade

Album: Crossfade

Tabber: needaband1115

Key: B Minor

1 2

Verse

G----------------------------|-------|-------|

D---------------------------*|-------|-------|

A----------------------------|-------|-------|

E---------------6-6-6-6-6-6-*|-5-5-5-|-5-3---|

B--3-3-3-3-3-3---------------|-------|-----6-|

 

Chorus/ Outro

G----------------------------------------|

D---------------------------------------*|

A----------------------------------------|

E--6-6-6-6-6--8^10~-8-8-8--6-6-6--3-1---*|

B-------------------------------------1--|

^= bend

ex. (8^10)= bend 8 to sound like 10

 

Bridge- No Bass

 

Guitar Solo

G-------------------------------------------|

D------------------------------------------*|

A-------------------------------------------|

E--6-6-6-6-6--8^10--8-8-8------------------*|

B-------------------------8-8-8-8--6-6-6-6--|

 

Return to my Crossfade bass tabs page

The Tablature is Copyright its respective owners.

Sign Up For My Newsletter
Subscribe | Unsubscribe

Site Map | Disclaimer | Privacy Policy | Media Kit | Submissions/Corrections

Website © 2000-2014 mattsmusicpage.com. All rights reserved.

Legal & DMCA: Matt's Music Page has been providing lyrics and tabs in a legal way, paying royalties each year to a few organizations. Then, all lyrics and tabs were removed from the site. Now, there's a new owner to the site, which purchased it August 26, 2014, and he is in negotiation to obtain licensing from BMI at the moment. If you have a specific DMCA request -- please do not hesitate to contact me via the contact button on top. I will do my very best to keep this site fully legal.

Get our toolbar!