Your One-Stop Source For
Music Lyrics
Bass and Guitar Tabs
and More...
>Music Lyrics Bass and Guitar Tabs

 

The Tabs Are Below

Learn To Read Tab
Chords Handbook
Corrections & Additions
Get Official Tab
CCR tabs @ 911Tabs

 

Down On The Corner - Creedence Clearwater Revial

 

[This was created with TabIt for Windows version 1.3]

 

E :--------------------------------------------------------------------

B :--------------------------------------------------------------------

G :--------------------------------------------------------------------

D :--------------------------------------------------------------------

A :3----------3---3--------------2--3---3----3----------3---3----------

E :----5---3----------5--3---3-------------------5---3----------5--3---

 

E :--------------------------------------------------------------------

B :--------------------------------------------------------------------

G :--------------------------------------------------------------------

D :----------------3----------3---3--------------2--5---5--------------

A :----2--3---3--------5---3----------5--3---3---------------3---------

E :3-------------------------------------------------------------5---3-

 

E :-------------------------------- 1|

B :-------------------------------- ||

G :--------------------------------*||

D :--------------------------------*||

A :-3---3--------------2--3---3---- ||

E :---------5--3---3--------------- ||

 

 

Return to my to my CCR tabs page

The Tablature is Copyright its respective owners.

Sign Up For My Newsletter
Subscribe | Unsubscribe

Site Map | Disclaimer | Privacy Policy | Media Kit | Submissions/Corrections

Website © 2000-2014 mattsmusicpage.com. All rights reserved.

Legal & DMCA: Matt's Music Page has been providing lyrics and tabs in a legal way, paying royalties each year to a few organizations. Then, all lyrics and tabs were removed from the site. Now, there's a new owner to the site, which purchased it August 26, 2014, and he is in negotiation to obtain licensing from BMI at the moment. If you have a specific DMCA request -- please do not hesitate to contact me via the contact button on top. I will do my very best to keep this site fully legal.

Get our toolbar!

 

B&W Photo S4167 Boy playing harmonica by piano
$3.98
B&W Photo S4167 Boy playing harmonica by piano picture


1948-1952 OCCUPIED JAPAN Musical Key Chain PEE WEE TOY HARMONICA off card nos
$19.99
1948-1952 OCCUPIED JAPAN Musical Key Chain PEE WEE TOY HARMONICA off card nos picture


Woody Woodpecker Kazoo and Harmonica
$12.5
Woody Woodpecker Kazoo and Harmonica picture


Woody Woodpecker Wind up Swimmer and Harmonica
$12.5
Woody Woodpecker Wind up Swimmer and Harmonica picture


Woody Woodpecker Kazoo and Harmonica
$5.0
Woody Woodpecker Kazoo and Harmonica picture