Your One-Stop Source For
Music Lyrics
Bass and Guitar Tabs
and More...
Music Lyrics Bass and Guitar Tabs

 

The Tabs Are Below

Learn To Read Tab
Chords Handbook
Corrections & Additions
Get Official Tab
Creed tabs @ 911Tabs

 

Creed

With Arms Wide Open (2nd version)

 

 

With Arms Wide Open

Creed

by Andy

E~mail=Aec2942@aol.com

 

h=hammer

E------------------------------------------------

B-0h1-------1-----1h3------1-------0h1h0

G------0--------0----------------0-------------

D--------0--------------------------------------

A-3---------------3-------3--------3----------

E------------------------------------------------

 

 

E----------------------------------------------------

B---0h1--------1--------1h3----1-----0h1h0--

G--------0----------0---------------0--------------

D-----------0----------------------------------------

A-------------2--------2--------2-----2-----------2

E------------------------------------------------------

 

E-------------------------------------------

B--0h1---------1--------1h3-----1-----

G-------0----------0------------------0---

D----------0--------------------------------

A-------------0--------0--------0-------0-

E--------------------------------------------

 

it takes a while to learn but these are the right tabs

 

the chords are F-C-E-D

 

Return to my to my Creed tabs page

The Tablature is Copyright its respective owners.

Sign Up For My Newsletter
Subscribe | Unsubscribe

Site Map | Disclaimer | Privacy Policy | Media Kit | Submissions/Corrections

Website © 2000-2014 mattsmusicpage.com. All rights reserved.

Legal & DMCA: Matt's Music Page has been providing lyrics and tabs in a legal way, paying royalties each year to a few organizations. Then, all lyrics and tabs were removed from the site. Now, there's a new owner to the site, which purchased it August 26, 2014, and he is in negotiation to obtain licensing from BMI at the moment. If you have a specific DMCA request -- please do not hesitate to contact me via the contact button on top. I will do my very best to keep this site fully legal.

Get our toolbar!

 

1939 LYRIC THEATRE New York PHOTO
$5.83
1939 LYRIC THEATRE New York PHOTO picture


Star Spangled Banner or Marines Hymn lyrics signed by WWII Charles W. Lindberg
$10.0
Star Spangled Banner or Marines Hymn lyrics signed by WWII Charles W. Lindberg picture


OLD LARGE HISTORIC PHOTO OF THE LYRIC THEATRE, SYDNEY c1930s, WAR BONDS BOOTH
$7.42
OLD LARGE HISTORIC PHOTO OF THE LYRIC THEATRE, SYDNEY c1930s, WAR BONDS BOOTH picture


SONG OF REVOLUTION CARD SET WITH 13 MOST FAVORED COMMUNIST SONGS LYRICS + NOTES
$24.99
SONG OF REVOLUTION CARD SET WITH 13 MOST FAVORED COMMUNIST SONGS LYRICS + NOTES picture


OLD LARGE HISTORIC PHOTO OF THE LYRIC THEATRE, SYDNEY c1930s, WAR LOANS BOOTH
$7.42
OLD LARGE HISTORIC PHOTO OF THE LYRIC THEATRE, SYDNEY c1930s, WAR LOANS BOOTH picture