Your One-Stop Source For
Music Lyrics
Bass and Guitar Tabs
and More...
Music Lyrics Bass and Guitar Tabs

 

The Tabs Are Below

Learn To Read Tab
Chords Handbook
Corrections & Additions
Get Official Tab
Creed tabs @ 911Tabs

 

What's This Life For

Creed

 

 

VERSE

G Bsus2 Csus2

e-----0-------2-2h3p2-----------2--2/3-------3-------|

b-3-3-------3---------3---------2--2/3---------3-----|

g-0-0-----2-------------0-----4-4--4/5---5--------5--|5x

d-0-0---0-------------------4------4/5-5------------0|

a-2-2---------------------2--------2/3---------------|

e-3-3------------------------------------------------|

Play first G chord in riff as an upstroke.

 

CHORUS

G D Bsus2 Csus2

e-3-3-3-3-3-3---2-2-2-2-2--2-2-2-2-2-2--/--3-3-3-3-3-3---|

b-3-3-3-3-3-3-x-3-3-3-3-3--2-2-2-2-2-2--/--3-3-3-3-3-3---|

g-0-0-0-0-0-0-x-2-2-2-2-2--4-4-4-4-4-4--/--5-5-5-5-5-5---|4x

d-0-0-0-0-0-0-x-0-0-0-0-0--4-4-4-4-4-4--/--5-5-5-5-5-5---|

a--------------------------2-2-2-2-2-2--/--3-3-3-3-3-3---|

e-3-3-3-3-3-3--------------------------------------------|

 

 

 

 

INTERLUDE

G

e-3--3--3---3--3-3-3--3--3--3---3--3-3---|

b-3--3--3---3--3-3-3--3--3--3---3--3-3---|

g-0--0--0---0--0-0-0--0--0--0---0--0-0-0-|

d-0--0--0-X-0--0-0-0--0--0--0-X-0--0-0-0-|

a-2--2--2-X-2--2-2-2--2--2--2-X-2--2-2-0-|

e-3--3--3-X-3--3-3-3--3--3--3-X-3--3-3---|

 

C Cmaj7 Am Asus2

e-0--0-0---0--0-0---0---0-0--0-0---0--0-0---0---0-|

b-1--1-1---0--0-0---1p0-0-1--1-1---0--0-0---1p0-0-|

g-0--0-0-0-0--0-0-0-0---0-2--2-2-2-2--2-2-2-2---2-|

d-2--2-2-2-2--2-2-2-2---2-2--2-2-2-2--2-2-2-2---2-|

a-3--3-3-3-3--3-3-3-3---3-0--0-0-0-0--0-0-0-0---0-|

e-------------------------------------------------|

 

D/A Dsus4 C Cmaj7

e-2--2-2---3--3-3-2-2-2-2-0--0-0---0--0-0---0---0-|

b-3--3-3---3--3-3-3-3-3-3-1--1-1---0--0-0---1p0-0-|

g-2--2-2-2-2--2-2-2-2-2-2-0--0-0-0-0--0-0-0-0---0-|

d-0--0-0-0-0--0-0-0-0-0-0-2--2-2-2-2--2-2-2-2---2-|

a-0--0-0-0----0---0-0-0-0-3--3-3-3-3--3-3-3-3---3-|

e-------------------------------------------------|

 

G

e-3--3-3--3----3--3-3-3-3-3----3--3--3-3----3-3-3-|

b-3--3-3--3----3--3-3-3-3-3----3--3--3-3----3-3-3-|

g-0--0-0--0--0-0--0-0-0-0-0--0-0--0--0-0--0-0-0-0-|

d-0--0-0--0--0-0--0-0-0-0-0--0-0--0--0-0--0-0-0-0-|

a-2--2-2--2--2-2--2-2-2-2-2--2-2--2--2-2--2-2-2-2-|

e-3--3-3--3--3-3--3-3-3-3-3--3-3--3--3-3--3-3-3-3-|

 

SONG :

VERSE 6X

CHORUS 4X

VERSE 5X

CHORUS 4X

INTERLUDE 5X

 

 

LYRICS

Hurray for a child

That makes it through

If there's any way

Because the answer lies in you

They're laid to rest

Before they know just what to do

Their souls are lost

Because they could never find

What's this life for

I see your soul, it's kind of gray

I see your heart, you look away

You see my wrist, I know your pain

I know your purpose on your plane

Don't say a last prayer

Because you could never find

What's this life for

But they ain't here anymore

Don't have to settle the score

Cause we all live

Under the reign of one king

 

--------------------------------------------------------------------------------

What's This Life For

Creed

 

INTRO, VERSE, AND CHORUS

G D B5 C5

 

1. Hurray for a child that makes it theough

If there's any way, because the answer lies in you

There laid to rest before they know just what to do

Their sould are lost because they could never find

 

Chorus : What's this life for (repeat)

 

2. I see your soul, it's kind of gray

I see your heart, you look away

You see my wrist, I know your pain

I know your purpose on your plane

Don't say a last prayer because you could never find

 

Chorus : What's this life for (repeat)

 

OUTRO

G

But they ain't here anymore

C (Cmaj7)

Don't have to settle the score

Am (Amsus2) D

Cause we all live

C (Cmaj7) G

Under the reign of one king

 

 

 

Return to my to my Creed tabs page

The Tablature is Copyright its respective owners.

Sign Up For My Newsletter
Subscribe | Unsubscribe

Site Map | Disclaimer | Privacy Policy | Media Kit | Submissions/Corrections

Website © 2000-2014 mattsmusicpage.com. All rights reserved.

Legal & DMCA: Matt's Music Page has been providing lyrics and tabs in a legal way, paying royalties each year to a few organizations. Then, all lyrics and tabs were removed from the site. Now, there's a new owner to the site, which purchased it August 26, 2014, and he is in negotiation to obtain licensing from BMI at the moment. If you have a specific DMCA request -- please do not hesitate to contact me via the contact button on top. I will do my very best to keep this site fully legal.

Get our toolbar!