Your One-Stop Source For
Music Lyrics
Bass and Guitar Tabs
and More...
Music Lyrics Bass and Guitar Tabs

 

The Tabs Are Below

Learn To Read Tab
Chords Handbook
Corrections & Additions
Get Official Tab
Creed tabs @ 911Tabs

 

-----------------------------------------------------------

Song: My own prison

Band: Creed

Album: My Own Prison

Transcribed by Yuri Radkevich

email notes or corrections to yar1677@garnet.acns.fsu.edu

-----------------------------------------------------------

This song uses drop D tuning also. I think most of it is correct. Also,

this is the version on their first release of the CD. Really the only

difference is the begining.

 

e--------------------------1--------------------------------------

b------3-3-----------------1--------------------------------------

g------2-2-----------------2--------------------------------------

d--0---0-0-------3h5p3-----3-------------0------------------------

a-----------0-3h5-----5-3--3--0-3h5p3-0---------------------------

D---0----------------------------------3--0-----------------------

 

 

Should have been dead on a Sunday………..

e------------------------------------------------------

b--3-3---3-3---1-1---5-5-------------------------------

g--2-2---3-3-0-2-2---5-5-------------------------------

d--0-0---3-3-0-3-3---5-5-------------------------------

a--0-0---1-1-0-3-3---3-3-------------------------------

D--0-0-------------------------------------------------

 

 

 

So I held my head up high……..

e---------------------------------------------------------

b-10--9--8--7----or you-----------------------------------

g-10--9--8--7----can play---------------------------------

d-10--9--8--7----it this way---10--9--8--7----------------

a--8--7--6--5------------------10--9--8--7----------------

D------------------------------10--9--8--7----------------

 

 

e-------------------------------------------------|-----1---

b–------------------------------------------------|---------

g--------10------------10-10------------10-10-10^-|--2/3--3-

d—-7~~—7/8---8-7~~--7/8-----8-7~~--7-7/8-----7----|distort.

The whole thing may be played on the first 3 frets.

 

 

I cry out to God……..

e--------------------------------

b--1-1---5-5----x-x---3-3--------

g--2-2---5-5-0--2-2---3-3-0------

d--3-3---5-5-0--0-0---3-3-0------

a--3-3---3-3----0-0---1-1-0------

D---------------0-0--------------

 

Return to my to my Creed tabs page

The Tablature is Copyright its respective owners.

Sign Up For My Newsletter
Subscribe | Unsubscribe

Site Map | Disclaimer | Privacy Policy | Media Kit | Submissions/Corrections

Website © 2000-2014 mattsmusicpage.com. All rights reserved.

Legal & DMCA: Matt's Music Page has been providing lyrics and tabs in a legal way, paying royalties each year to a few organizations. Then, all lyrics and tabs were removed from the site. Now, there's a new owner to the site, which purchased it August 26, 2014, and he is in negotiation to obtain licensing from BMI at the moment. If you have a specific DMCA request -- please do not hesitate to contact me via the contact button on top. I will do my very best to keep this site fully legal.

Get our toolbar!

 

VINTAGE SORRENTO MUSIC JEWELRY BOX
$45.0
VINTAGE SORRENTO MUSIC JEWELRY BOX picture


VINTAGE LACQUERED MUSIC BOX JAPAN
$25.99
VINTAGE LACQUERED MUSIC BOX JAPAN picture


Vintage Kehlsteinhaus Bavaria Germany Colorscope Cow Bell View Master Music Box
$8.99
Vintage Kehlsteinhaus Bavaria Germany Colorscope Cow Bell View Master Music Box picture


VINTAGE SCHMIDT Signed Collectible Musical Turning Clown
$9.99
VINTAGE  SCHMIDT Signed Collectible Musical Turning Clown picture


Vintage - Linen - Postcard - Stage - Radio City Music Hall - New York City
$3.75
Vintage - Linen - Postcard - Stage - Radio City Music Hall - New York City   picture