Your One-Stop Source For
Music Lyrics
Bass and Guitar Tabs
and More...
Music Lyrics Bass and Guitar Tabs

 

The Tabs Are Below

Learn To Read Tab
Chords Handbook
Corrections & Additions
Get Official Tab
Creed tabs @ 911Tabs

 

Creed

Never Die

 

 

Person: Joshua Page

 

song: Never Die

 

artist: Creed

 

tab: Artist: Creed

Album: Human Clay

Title: Never Die

Tabbed by Joshua Page (JPage92355@aol.com) 09/29/99

Drop-D Tuning

 

Intro/Verse:Play 13 times (Clean)sounds good with a phaser

E-|------------------|

B-|------------------|

G-|--8~------7~------|

D-|------8~------7~--|

A-|------------------|

D-|------------------|

End Intro/Verse

 

1st Chorus: (Distortion)

E-|-----------------------------------------|

B-|-----------------------------------------|

G-|------------8~------8-8-----7~------7-7--|

D-|--0-0--0-0--6~--0-0-8-8-0-0-5~--0-0-7-7--|

A-|--0-0--0-0------0-0-6-6-0-0-----0-0-5-5--|

D-|--0-0--0-0------0-0-----0-0-----0-0------|

p.m._____| |___| |___| |___|

 

E-|----------------------------------------------|

B-|----------------------------------------------|

G-|------------8~------8-8-----7~--7~------------|

D-|--0-0--0-0--6~--0-0-8-8-0-0-5~------0-0--0-0--|

A-|--0-0--0-0------0-0-6-6-0-0---------0-0--0-0--|

D-|--0-0--0-0------0-0-----0-0---------0-0--0-0--|

p.m._____| |___| |___| |________|

 

E-|--------------------------------------------|

B-|--------------------------------------------|

G-|--8~------8-8-----7~------7-7------7-----7--|

D-|--6~--0-0-8-8-0-0-5~--0-0-7-7--0-0-0-0-0-0--|

A-|------0-0-6-6-0-0-----0-0-5-5--0-0---0-0----|

D-|------0-0-----0-0-----0-0------0-0---0-0----|

p.m. |___| |___| |___| |___|

 

E-|-------------------------|

B-|-------------------------|

G-|--8~------8-8-----7~--7--|

D-|--6~--0-0-8-8-0-0-5~--7--|

A-|------0-0-6-6-0-0-----5--|

D-|------0-0-----0-0--------|

p.m. |___|

End 1st Chorus

 

Repeat Intro/Verse 10 times then 1st Chorus

 

1st Bridge:Play 2 times (Clean)

E-|------------------------------------------------------------|

B-|------------------------------------------------------------|

G-|------------------------------------------------------------|

D-|--4-5--7--7/8\7--4-5-7--7/8\7--4-5-7--7/8\7--5-5-4-4h5p4p0--|

A-|------------------------------------------------------------|

D-|------------------------------------------------------------|

End Riff 3

 

2nd Bridge: (Clean)

E-|--------------------------------------------------------------------------|

B-|--------------------------------------------------------------------------|

G-|--11-12-12-14-14h15p14--11-12-12-14-14h15p14--11-12-12-14-14h15p14-11-12--|

D-|--------------------------------------------------------------------------|

A-|--------------------------------------------------------------------------|

D-|--------------------------------------------------------------------------|

 

(Distortion) with phaser

E-|-------------------|

B-|-------------------|

G-|--12-12-12-12-12\--|

D-|-------------------|

A-|-------------------|

D-|-------------------|

End 2nd Bridge (Harmonic a few 12s at the begining)

 

3rd Bridge: (Distortion)

E-|-----------------------------------------------------------------------------|

B-|-----------------------------------------------------------------------------|

G-|--11-12-14-14/15\14--11-12-14-14/15\14--11-12-14-14/15\14-12-12-11-11/12\11--|

D-|-----------------------------------------------------------------------------|

A-|---9-10-12-12/13\12---9-10-12-12/13\12---9-10-12-12/13\12-10-10--9--9/10-\9--|

D-|-----------------------------------------------------------------------------|

End 3rd Bridge

 

2nd Chorus: (Distortion)

E-|-------------------------------|

B-|-------------------------------|

G-|--8~------8-8-----7~------7-7--|

D-|--6~--0-0-8-8-0-0-5~--0-0-7-7--|

A-|------0-0-6-6-0-0-----0-0-5-5--|

D-|------0-0-----0-0-----0-0------|

p.m. |___| |___|

 

E-|----------------------------------------------|

B-|----------------------------------------------|

G-|------------8~------8-8-----7~--7~------------|

D-|--0-0--0-0--6~--0-0-8-8-0-0-5~------0-0--0-0--|

A-|--0-0--0-0------0-0-6-6-0-0---------0-0--0-0--|

D-|--0-0--0-0------0-0-----0-0---------0-0--0-0--|

p.m._____| |___| |___| |________|

 

E-|--------------------------------------------|

B-|--------------------------------------------|

G-|--8~------8-8-----7~------7-7------7-----7--|

D-|--6~--0-0-8-8-0-0-5~--0-0-7-7--0-0-0-0-0-0--|

A-|------0-0-6-6-0-0-----0-0-5-5--0-0---0-0----|

D-|------0-0-----0-0-----0-0------0-0---0-0----|

p.m. |___| |___| |___| |___|

 

E-|-------------------------------|

B-|-------------------------------|

G-|--8~------8-8-----7------------|

D-|--6~--0-0-8-8-0-0-7--000000-0--|

A-|------0-0-6-6-0-0-5--000000-0--|

D-|------0-0-----0-0----000000-0--|

p.m. |___| |______|

 

E-|-------------------------------|

B-|-------------------------------|

G-|--8~------8-8-----7~------7-7--|

D-|--6~--0-0-8-8-0-0-5~--0-0-7-7--|

A-|------0-0-6-6-0-0-----0-0-5-5--|

D-|------0-0-----0-0-----0-0------|

p.m. |___| |___|

 

E-|---------------------------------------------------|

B-|---------------------------------------------------|

G-|------------8~------8-8-----7~--7------------------|

D-|--0-0--0-0--6~--0-0-8-8-0-0-5~--7---0-0--0-0--0-0--|

A-|--0-0--0-0------0-0-6-6-0-0---------0-0--0-0--0-0--|

D-|--0-0--0-0------0-0-----0-0---------0-0--0-0--0-0--|

p.m._____| |___| |___| |_____________|

 

E-|--------------------------------------------|

B-|--------------------------------------------|

G-|--8~------8-8-----7~------7-7------7-----7--|

D-|--6~--0-0-8-8-0-0-5~--0-0-7-7--0-0-0-0-0-0--|

A-|------0-0-6-6-0-0-----0-0-5-5--0-0---0-0----|

D-|------0-0-----0-0-----0-0------0-0---0-0----|

p.m. |___| |___| |___| |___|

 

E-|---------------------|

B-|---------------------|

G-|--8~------8-8-----7--|

D-|--6~--0-0-8-8-0-0-7--|

A-|------0-0-6-6-0-0-5--|

D-|------0-0-----0-0----|

p.m. |___|

End 2nd Chorus

 

Repeat Intro/Verse 2 Times

______________________________

Key:

~- Bend Up and Down

/- Slide Up

\- Slide Down

h- Hammer On

p- Pull Off

 

 

Return to my to my Creed tabs page

The Tablature is Copyright its respective owners.

Sign Up For My Newsletter
Subscribe | Unsubscribe

Site Map | Disclaimer | Privacy Policy | Media Kit | Submissions/Corrections

Website © 2000-2014 mattsmusicpage.com. All rights reserved.

Legal & DMCA: Matt's Music Page has been providing lyrics and tabs in a legal way, paying royalties each year to a few organizations. Then, all lyrics and tabs were removed from the site. Now, there's a new owner to the site, which purchased it August 26, 2014, and he is in negotiation to obtain licensing from BMI at the moment. If you have a specific DMCA request -- please do not hesitate to contact me via the contact button on top. I will do my very best to keep this site fully legal.

Get our toolbar!