Your One-Stop Source For
Music Lyrics
Bass and Guitar Tabs
and More...
Music Lyrics Bass and Guitar Tabs

 

The Tabs Are Below

Learn To Read Tab
Chords Handbook
Corrections & Additions
Get Official Tab
Creed tabs @ 911Tabs

 

Creed

Higher

 

 

E-

B-

G-7-7-9-9-11-11/12-11---9-9-9-11-11p9p7h9--11-9--9--7-7-7-9-9-7-7-7-7-|12p11-1

1-9h11-11-9h11-11|

D-0-0-0-0-0-0-0-0----0----7-7-7--7---7~~~~~~--7--7-7---5-5-5-7-7-5-5-5-5--|0--

-0---0--0---0---0--0--0---0| first time

A-0-0-0-0-0-0-0-0----0----7-7-7-7----7~~~~~~--7--7-7---5-5-5-7-7-5-5-5-5--|0--

-0---0--0---0---0--0--0---0|

D-0-0-0-0-0-0-0-0----0----7-7-7-7----7~~~~~~--7--7-7---5-5-5-7-7-5-5-5-5--|0--

-0---0--0---0---0--0--0---0|

 

second time

 

E-0-5-0-0-0-5-0-0-0-5-4-2-4-0

A-0-5-0-0-0-5-0-0-0-5-4-2-4-0

D-0-5-0-0-0-5-0-0-0-5-4-2-4-0

 

 

The Chords are

 

 

E-

B-3

G-2

D-

A-

D-

 

 

 

 

E-

B-

G-6

D-5

A-5

D-5

 

 

Lets go there.....

First time

E- -

B- -

G-6 - 7

D-4 - 5

A-4 x8 - 5

D-4 - 5

 

 

second time.

 

E

B-7

G-6

D-4

A-4

D-4

 

E

B-8

G-7

D-5

A-5

D-5

 

*Slide up on last one

 

 

Chorus

 

 

E-

B-

G-7-7-6-6-7-6-0-5-4-0-6-7-9p7p6-6-7-7-6-6-7-6-0-5-4-0-

D-7-7-7-7-7-7-0-5-4-0-------------------0-0-7-7-7-7-0-5-4-0-

A-5-5-4-4-7-4-0-5-4-0-------------------0-0-4-4-5-4-0-5-4-0-4bend half 1/4

step-4-0

D-0-0-0-0-0-0-0-0-0-0-------------------0-0-0-0-0-0-0-0-0-0-

 

Return to my to my Creed tabs page

The Tablature is Copyright its respective owners.

Sign Up For My Newsletter
Subscribe | Unsubscribe

Site Map | Disclaimer | Privacy Policy | Media Kit | Submissions/Corrections

Website © 2000-2014 mattsmusicpage.com. All rights reserved.

Legal & DMCA: Matt's Music Page has been providing lyrics and tabs in a legal way, paying royalties each year to a few organizations. Then, all lyrics and tabs were removed from the site. Now, there's a new owner to the site, which purchased it August 26, 2014, and he is in negotiation to obtain licensing from BMI at the moment. If you have a specific DMCA request -- please do not hesitate to contact me via the contact button on top. I will do my very best to keep this site fully legal.

Get our toolbar!