Your One-Stop Source For
Music Lyrics
Bass and Guitar Tabs
and More...
Music Lyrics Bass and Guitar Tabs

 

The Creed Guitar Tabs Are Below

Learn To Read Tab
Chords Handbook
Corrections & Additions
Get Official Tab
Creed tabs @ 911Tabs

Creed - "Good Fight"

From "Full Circle" Album

C# Tuning - C# F# B E G# C#, all strings tuned down 3 frets

tabbed by jjhand

 

The riffs and solo are very nice on this song but I find the chorus part

could be better. Great song though, so please rate or comment. Thanks!

 

Main Riff -

C#7 C#add2 C#

|----------------------------|--------------------------------|

|----------------------------|--------------------------------|

|----------------------------|--------------------------------|

|-------------0--------------|-4---2------------------2-------|

|--------2--------------2----|---------2--------------2-------|

|-0--0-0----0-----0-0-0----0-|---0-------0----0-3b-0--0---0-2-|

 

E D#m7 D

|---------------------------|-------------------0---------|

|---------------------------|---------------------0-------|

|---------------------------|-----------------------2-----|

|-------------0-------------|-4--2--2-----------------3---|

|--------2--------------2---|----0--0-------3-----------0-|

|-3--3-3----3-----3-3-3---3-|--0h2--2---0h1---------------|

 

 

 

 

Lyrics:

 

"I give my all, my everything. Anything you wanna strive to be

that's right. God knows thats right.

Or am I stuck some where between who I am and who I hope to be

Am I fighting the good fight?"

 

 

Chorus - * Distortion on

|---------------------------|-------------------------|---------------------------|

|---------------------------|-------------------------|---------------------------|

|-2----2---2-2-2-2----2-2---|-2----2----2--2-2--2-2-0-|---------------------------|

|-0----0---0-0-0-0----0-0---|-3----3----3--3-3--3-3-0-|-7----7---7-7-7-7---7-7-7--|

|-2----2---2-2-2-2----2-2---|-3----3----3--3-3--3-3-0-|-5----5---5-5-5-5---5-5-5--|

|-3----3---3-3-3-3----3-3-0-|-1----1----1--1-1--1-1---|-5----5---5-5-5-5---5-5-5--|

 

"Keep pressing on Fight the good fight"

 

 

|-----------------------|-----------------------|--------------------------|

|-----------------------|-----------------------|--------------------------|

|-----------------------|-2----2---2-2-2-2------|-2----2----2--2-2--2--0---|

|-7----7---7-7----------|-0----0---0-0-0-0---0--|-3----3----3--3-3--3--0---|

|-4----4---4-4--7---7---|-2----2---2-2-2-2---0--|-3----3----3--3-3--3--0-5-|

|---------------5---4---|-3----3---3-3-3-3---2--|-1----1----1--1-1--1----5-|

 

"Fight... what you know is wrong. Keep pressing on"

 

 

|---------------------------|-----------------------|

|---------------------------|-----------------------|

|---------------------------|-----------------------|

|-7----7---7-7-7-7---7-7-7--|-7---------------------|

|-5----5---5-5-5-5---5-5-5--|-4---------------------|

|-5----5---5-5-5-5---5-5-5--|-----------------------|

 

"Fight the good fight Fight... what you know is wrong."

 

 

 

 

Play Verse and Chorus again

 

Verse 2 Lyrics:

"I've come so far to fall too fast, eyes forward I can't look back

when I try. God knows I try

I shift my eyes through the sky, in the distance see the horizon light.

She waits for me, fighting the good fight"

 

Chorus is same as before

 

 

 

Interlude - pick-up notes from chorus shown in beginning

 

play this 4 bars 2x

|-------||-----------------------------|----------------------------------|

|-------||-----------------------------|----------------------------------| PH

|-------||-----------------------------|----------------------------------| changes on

|-------||-----------------------------|----------------------2-4---------| repeat

|-2-0---||--------------/8-7~----------|-/5---------------2-3-----3-2-5PH~| <-

|-----3-||-0--0-0-0-3-0--------0-0-3-0-|----7~--0-0-3-0-------------------|

 

|-----------------------------|----------------------------------||

|-----------------------------|----------------------------------||

|-----------------------------|----------------------------------||go to above

|-----------------------------|----------------------2-4---------||line to repeat

|--------------/8-7~----------|-/5---------------2-3-----3-2-0---||

|-0--0-0-0-3-0--------0-0-3-0-|----7~--0-0-3-0-------------------||

 

 

 

 

Solo - Rhythm guitar track plays Main Riff chords throughout with one repeat (8 bars total)

|------------------------------|----------------------------------|

|-7------x-10b12r10-8----------|-3----1----0----------------------|

|-9----------------------------|-4----2----0----------------------|

|---------------------9\7-5----|----------------7b8r7p5p0-4-2-0---|

|------------------------------|--------------------------------2-|

|---------------------------0--|----------------------------------|

 

w/ wah

|----------------0-----|--------------------5h7p5--8h10p8------------------|

|--------------0-------|-8p7p0-0h5-0h8-5h7p5-------------10p8p7h8h10-7---x-|

|---------4-5-5--------|----------------------------------------------9--x-|

|------/5--------------|---------------------------------------------------|

|----------------------|---------------------------------------------------|

|-3--------------------|---------------------------------------------------|

 

----------------------------|

-7------15-15_____----------|

-9------14-14b16r14-12------|

-----------------------14~\-|

----------------------------|

----------------------------|

 

 

|-0----0----0----------------------|----------------------------------|

|-3----1----0----------------------|----------------------------------|

|-4----2----0----------------------|----------------------------------|

|----------------7b8r7p5p0-4-2-0---|-------------5-7-7b8-b8-b8-b8r7~--|

|--------------------------------2-|---------5-7----------------------|

|----------------------------------|-3----/7--------------------------|

 

very fast!

|----------------------------------------------------------------------------------------|

|-12h15--12h17--12h15p12--12-12-12--12---------------------------------------------------|

|------14-----14--------14--------14--14p12--12-14p13p12--14--12h13----------------------|

|------------------------------------------14-----------14--14-----14--12----------------|

|--------------------------------------------------------------------------14-13-12-10~~~|

|----------------------------------------------------------------------------------------|

last note is during chorus repeat

 

 

As mentioned, repeat chorus at end of solo section

 

Play Interlude again and end on:

|-----------------------------|

|-----------------------------|

|-----------------------------|

|-----------------------------|

|-2---------------------------|

|-0---------------------------|

 

 

key

| / slide up

| \ slide down

| h hammer-on

| p pull-off

| ~ vibrato

| PH pinch harmonic

| x Mute note

| b bend note

| r release bend to lower pitch

Click here to return to my Creed Guitar Tabs page

The Tablature is Copyright its respective owners.

Sign Up For My Newsletter
Subscribe | Unsubscribe

Site Map | Disclaimer | Privacy Policy | Media Kit | Submissions/Corrections

Website © 2000-2014 mattsmusicpage.com. All rights reserved.

Legal & DMCA: Matt's Music Page has been providing lyrics and tabs in a legal way, paying royalties each year to a few organizations. Then, all lyrics and tabs were removed from the site. Now, there's a new owner to the site, which purchased it August 26, 2014, and he is in negotiation to obtain licensing from BMI at the moment. If you have a specific DMCA request -- please do not hesitate to contact me via the contact button on top. I will do my very best to keep this site fully legal.

Get our toolbar!