Your One-Stop Source For
Music Lyrics
Bass and Guitar Tabs
and More...
>Music Lyrics Bass and Guitar Tabs

 

The Tabs Are Below

Learn To Read Tab
Chords Handbook
Corrections & Additions
Get Official Tab
Creed tabs @ 911Tabs

Creed

Wrong Way

 

Transcribed By: Ryan Huntsman (IbanezBassMX)

Email: Ryan82184@aol.com

 

Drop D Tunning

 

Bass comes in on (0:11)

G--------

D--------

A--------

D-3-1-0--

 

Verse (0:12)

G-----------------------------------

D----0------0------0------0--------- X6

A-66----3-5-----88----3-5-----------

D----------------------------3-1-0--

 

On 7th time (0:47)

G-------------------------------------

D----0------0~------------------------

A-66----3-5-------88888888--77777777--

D-------------------------------------

 

Soft Yeah part (0:54)

G--------

D--------

A--------

D-3~-2~--

 

Verse (1:00)

G-----------------------------------

D----0------0------0------0---------

A-66----3-5-----88----3-5-----------

D----------------------------3-1-0--

 

Soft Yeah part (1:06)

G--------

D--------

A--------

D-3~-2~--

 

Verse (1:13)

G-----------------------------------

D----0------0------0------0--------- X6

A-66----3-5-----88----3-5-----------

D----------------------------3-1-0--

 

On 7th time (1:49)

G-------------------------------------

D----0------0~------------------------

A-66----3-5-------88888888--77777777--

D-------------------------------------

 

Soft Yeah part (1:55)

G--------

D--------

A--------

D-3~-2~--

 

Chorus (2:02)

G------------------------------

D------------------------------

A-------3333-5----------5------

D-0-0-0--------5-5-5-5----5/4--

 

(2:08)

G-------------------------------------

D-------------------------------------

A------------3-----------------2-3-5--

D-3-3-3-3---3-3--2-2-2-2----22--------

 

(2:15)

G-------------------------

D-------------------------

A-----3333-5----------5---

D-000---------5-5-5-5--5--

 

Interlude (2:21)

G---------------------------------------------

D---------------------------------------------

A-----555-----44455444------------------------

D-000-----000----------000--888-000-777-88-7--

 

(2:28)

G----------------------------------------------

D----------------------------------------------

A-----555-----44455444-------------------------

D-000-----000----------000--888-000-777-88--5--

 

(2:34)

G---------------------------------------------

D---------------------------------------------

A-----555-----44455444------------------------

D-000-----000----------000--888-000-777-88-7--

 

(2:41)

G----------------------------------------------

D----------------------------------------------

A-----555-----44455444-------------------------

D-000-----000----------000--888-000-777-88--5--

 

(2:48)

G---------------------------------------------

D---------------------------------------------

A-----555-----44455444------------------------

D-000-----000----------000--888-000-777-88-7--

 

(2:54)

G----------------------------------------------

D----------------------------------------------

A-----555-----44455444-------------------------

D-000-----000----------000--888-000-777-88--5--

 

Bridge (3:01)

G--------------------------------------------------

D--------------------------------------------------

A-666---33--------------666--33-------------0\12~--

D-------------1-1-0~---------------1-1-0-----------

 

(3:14)

G-----------------------------------------

D-----------------------------------------

A-666---33--------------666--33-----------

D-------------1-1-0~---------------1-1-0--

 

Bridge2 (3:24)

G------------7/8\7----------------7/8\7--------------7/8---------------------

D----------------------------------------------------------------------------

A------3-5-------------------3-5----------------3-5---------------3-5--------

D-0-1------------------0-1-----------------0-1--------------0-1-------5-4-3--

 

(3:38)

G---------------------------------

D---------------------------------

A------------3-------------2-3-5--

D-3-3-3-3---3-3--2-2-2-2-2--------

 

Chorus (3:44)

G--------------------------------

D--------------------------------

A--------/3-333H5-3---------5----

D-0-0-0-0----------05-5-5-5---5--

 

(3:50)

G---------------------------------

D---------------------------------

A------------3-------------2-3-5--

D-3-3-3-3---3-3--2-2-2-2-2--------

 

(3:57)

G--------------------------------

D--------------------------------

A--------/3-333H5-3---------5----

D-0-0-0-0----------05-5-5-5---5--

 

Soft Yeah part (4:04)

G--------

D--------

A--------

D-3~-2~--

 

Thats it, both of the tabs on here were almost perfect, I just added the time

and fixed the little things that they missed, Have fun.

Please rate this tab, Thanks.

 

 

Return to my to my Creed bass tabs page

The Tablature is Copyright its respective owners.

Sign Up For My Newsletter
Subscribe | Unsubscribe

Site Map | Disclaimer | Privacy Policy | Media Kit | Submissions/Corrections

Website © 2000-2014 mattsmusicpage.com. All rights reserved.

Legal & DMCA: Matt's Music Page has been providing lyrics and tabs in a legal way, paying royalties each year to a few organizations. Then, all lyrics and tabs were removed from the site. Now, there's a new owner to the site, which purchased it August 26, 2014, and he is in negotiation to obtain licensing from BMI at the moment. If you have a specific DMCA request -- please do not hesitate to contact me via the contact button on top. I will do my very best to keep this site fully legal.

Get our toolbar!

 


LOT of 20 -12" LP VINYL Record album COVERS ONLY Party Decoration Art random
$
LOT of 20 -12


VINTAGE ANIME four record lp soundtrack compilation japan vinyl astroboy RARE
$
VINTAGE ANIME four record lp soundtrack compilation japan vinyl astroboy RARE picture


Jukebox Package Somethin Smith And the Redheads Lot Five 33 1/3 RPM NOS
$
Jukebox Package Somethin Smith And the Redheads Lot Five 33 1/3 RPM NOS picture


The Bible Speaks For Itself 20 Red Vinyl Records Original Binder Box
$
The Bible Speaks For Itself 20 Red Vinyl Records Original Binder Box  picture


Pram
$
Pram picture


Metal Sign RECORDS tapes vinyl albums record store day shop music cds indie
$
Metal Sign RECORDS tapes vinyl albums record store day shop music cds indie  picture


Vintage 1980s THUNDERCATS READ-ALONG BOOK & RECORD (VINYL RECORD NOT INCLUDED)
$
Vintage 1980s THUNDERCATS READ-ALONG BOOK & RECORD (VINYL RECORD NOT INCLUDED) picture


MADE IN ABYSS Dawn of the Deep Soul Vinyl Record Soundtrack 2 LP Kevin Penkin
$
MADE IN ABYSS Dawn of the Deep Soul Vinyl Record Soundtrack 2 LP Kevin Penkin picture


DC Multiverse THE JOKER COMEDIAN Gold Label Sketch Autograph Todd McFarlane AUTO
$
DC Multiverse THE JOKER COMEDIAN Gold Label Sketch Autograph Todd McFarlane AUTO picture


NEW HOUSE OF TERROR 180gsm LP w/ NEAL ADAMS' MONSTERS extended/recolored COMIC
$
NEW HOUSE OF TERROR 180gsm LP w/ NEAL ADAMS' MONSTERS extended/recolored COMIC picture