Your One-Stop Source For
Music Lyrics
Bass and Guitar Tabs
and More...
Music Lyrics Bass and Guitar Tabs

 

The Tabs Are Below

Learn To Read Tab
Chords Handbook
Corrections & Additions
Get Official Tab
Creed tabs @ 911Tabs

 

Song: With Arms Wide Open

Artist: Creed

Album: Human Clay

Tabbed By: Tim Reid (natural_kozz@hotmail.com)

 

I want to give credit to Dave Covert for the first tab it helped

me do this one which is a little more complete. I don't think it is

100% perfect but its how I play the song, and it fits.

 

b= bend string

 

Intro: line1 when he starts to sing play this..

G|----------------------------------|

D|-8--8-8--8-7--7-7--7-5--5---5--5--|

A|----------------------------------| x1

E|----------------------------------|

 

Intro: line2

G|---------------------------------|

D|------------------------------7--|

A|-3-3-3-3-3-2-2-2-2-2-0-0-0--0----| x1

E|---------------------------------|

 

1st Chorus:

G|------------------------------------------|

D|------------------------------------------|

A|----------------------------------/-5-----| x1

E|-1--1-1h3h4/-8--8-8p7p5-0--0-0-2h3-----3--|

 

Verse: line1

G|----------------------------------------------------|

D|------------------------------------5--5-5h7--------|

A|-3--3-3-3-3h5-3-2--2-2-2-2h3h5-0--0-----------7---5-| x1

E|----------------------------------------------------|

 

Verse: line2

G|---------------------------------------------12h14-----------|

D|--------------------------------------5--5h7-------5h7-------|

A|-3--3-3-3--3h5-3-2--2-2-2--2h3h5-0--0--------------------7p5-| x1

E|-------------------------------------------------------------|

 

Verse: line3

G|-------------------------------------------------------|

D|-------------------------------------5--5-5h7-7--------|

A|-3--3-3-3-3h5-3-2--2-2-2--2h3h5-0--0------------5h7b-5-| x1

E|-------------------------------------------------------|

 

Chorus: (this is the main line, with 2 different endings)

G|-----------------------------------------------------------------|

D|-----------------------------------------------------------------|

A|---------------------------------------------------------------/-|

E|-1--1-1-1-1-1-1--1-1h3h4/-8--8-8-8-8-8-8--8-8-7-5-0--0-1--0-2h3--|

 

1st |------------------------| 2nd |------------|

end |------------------------| end |------------|

|-/5--5-5-5-5-3-5-5-3----| |-/5--5-5----|

|---------------------5\-| |----------3-|

 

Verse2: line1

G|-------------------------------------12h14--------|

D|------------------------------5--5h7--------------|

A|-3-3-3-3-3-2-2-2-2-2h3h5-0--0-----------------5h7-| x1

E|--------------------------------------------------|

 

Verse2: line2 x1 (I don't think the build up here is right)

G|-----------------------------------------------------------------------|

D|--------------------------------5-5h7p5-5-5h7p5-5-5h7p5----------------|

A|-3--3-3-3-3h5-3-2--2-2-2-2h3h5-0------------------------0h5h7b77-5-----|

E|------------------------------------------------------------------7-5/-|

 

Guitar Solo Part:

G|-------------------------------------------------------

D|-------------------------------------------------------

A|-------------------------------------------------------

E|-8-8-8-8-8-8h10b10b10b10b\7-7-7-7-7-7h8h10b10b10b10b\--

 

-------------------------------------------|

-------------------------------------------|

-------------------------------------------| x3

-6-6-6-6-6-6-6-6-6-6\5-5-5-5-5-5-5-5-5-5/--|

 

Chorus: (this is the main line, with 2 different endings)

G|-----------------------------------------------------------------|

D|-----------------------------------------------------------------|

A|---------------------------------------------------------------/-|

E|-1--1-1-1-1-1-1--1-1h3h4/-8--8-8-8-8-8-8--8-8-7-5-0--0-1--0-2h3--|

 

1st |-----------------------| 2nd |------------|

end |-----------------------| end |------------|

|-/5--5-5-5-5-3-5-5-5-5-| |-/5--5-5----|

|-----------------------| |----------3-|

 

Verse3: (Outro verse) line1:

G|----------------------------------------|

D|--------------------------7-------------|

A|-3-3-3-3-3-2-2-2-2-2-0--0------7-5h77-5-|

E|----------------------------------------|

 

Verse3: (End verse) line2:

G|--------------------------------------12h14----------------|

D|----------------------------------5---------5h7------------|

A|-3--3-3-3-3h5-3-2--2-2-2-2-2-0--0---------------5h7-5--2h3-|

E|-----------------------------------------------------------|

 

You can email or post corrections for this Tab, this is actually the

first song I have attempted to do, it sounds pretty good but I'm sure

in some places its wrong, its a great song.

 

 

Return to my to my Creed bass tabs page

The Tablature is Copyright its respective owners.

Sign Up For My Newsletter
Subscribe | Unsubscribe

Site Map | Disclaimer | Privacy Policy | Media Kit | Submissions/Corrections

Website © 2000-2014 mattsmusicpage.com. All rights reserved.

Get our toolbar!