Your One-Stop Source For
Music Lyrics
Bass and Guitar Tabs
and More...
Music Lyrics Bass and Guitar Tabs

 

The Tabs Are Below

Learn To Read Tab
Chords Handbook
Corrections & Additions
Get Official Tab
Creed tabs @ 911Tabs

What If - Creed

Tuning: Drop D (D A D G)

Tabber: Gasgano

 

(Some people say there is no bass in the intro... I think there is but I'm not sure...)

 

Intro

G|--------------------------------------------------------\

D|-------------------------------------------------------- \

A|-5--5-3--3-1-1-0-0-0-0---5-5-0-0-1-1-0-0-0-0-1-1-0----0- /

D|--------------------------------------------------------/

 

Verse

G|---------------------------------------------------\

D|--------------------------------------------------- \

A|--------------------------------------------------- /

D|-0-0-3h5-0-10h12-0-8-2~----------------------------/

 

Chorus

G|--------------------------------------------------------------\

D|-------------------------------------------------------------- \

A|-1-1-1---1-3-3-3--1---------3-5-7-5--1---------3-5-7-5--1----- /

D|-------0------------3-2-0-0------------3-2-0-0------------3-3-/

 

G|---------------5----------------------------------------------\

D|--------------5----------------------------------------------- \

A|-1-1-1---1-33-----1---------3-5-7-5--1---------3-5-7-5-1------ /

D|-------0------------3-2-0-0------------3-2-0-0-----------3-3--/

 

Break1

G|---------------------------------------------------\

D|--------------------------1------------------------ \

A|--------------------------------------------------- /

D|-030--0-0030--030-0-00000--------------------------/

 

Break2

(Most people play it on the low D string... I play it on the high D string because it sounds better)

G|---------------------------------------------------\

D|-0-12-13-0-16-15-0-12-0-16-15-0-10-12-15-13-------- \

A|--------------------------------------------------- /

D|---------------------------------------------------/

 

G|---------------------------------------------------\

D|-0-12-13-0-16-15-0-12-0-16-10/12-12/15-15\13------- \

A|--------------------------------------------------- /

D|---------------------------------------------------/

 

Outro

G|---------------------------------------------------\

D|--------------------------------------------------- \

A|------------------------------------------7-------- /

D|-0-00-4-00-0-1-0-3-0-4-3-0-00-4-00-0-1-00----------/

 

 

Intro x 1

Verse x 12

Chorus x 1

Verse x 7

Chorus x 1

Break1 x 2

Break2 x 8

Outro x 4

Chorus x 1½

Outro x 4

 

 

Return to my to my Creed bass tabs page

The Tablature is Copyright its respective owners.

Sign Up For My Newsletter
Subscribe | Unsubscribe

Site Map | Disclaimer | Privacy Policy | Media Kit | Submissions/Corrections

Website © 2000-2014 mattsmusicpage.com. All rights reserved.

Legal & DMCA: Matt's Music Page has been providing lyrics and tabs in a legal way, paying royalties each year to a few organizations. Then, all lyrics and tabs were removed from the site. Now, there's a new owner to the site, which purchased it August 26, 2014, and he is in negotiation to obtain licensing from BMI at the moment. If you have a specific DMCA request -- please do not hesitate to contact me via the contact button on top. I will do my very best to keep this site fully legal.

Get our toolbar!

 

1939 LYRIC THEATRE New York PHOTO
$5.83
1939 LYRIC THEATRE New York PHOTO picture


Star Spangled Banner or Marines Hymn lyrics signed by WWII Charles W. Lindberg
$10.0
Star Spangled Banner or Marines Hymn lyrics signed by WWII Charles W. Lindberg picture


OLD LARGE HISTORIC PHOTO OF THE LYRIC THEATRE, SYDNEY c1930s, WAR BONDS BOOTH
$7.42
OLD LARGE HISTORIC PHOTO OF THE LYRIC THEATRE, SYDNEY c1930s, WAR BONDS BOOTH picture


SONG OF REVOLUTION CARD SET WITH 13 MOST FAVORED COMMUNIST SONGS LYRICS + NOTES
$24.99
SONG OF REVOLUTION CARD SET WITH 13 MOST FAVORED COMMUNIST SONGS LYRICS + NOTES picture


OLD LARGE HISTORIC PHOTO OF THE LYRIC THEATRE, SYDNEY c1930s, WAR LOANS BOOTH
$7.42
OLD LARGE HISTORIC PHOTO OF THE LYRIC THEATRE, SYDNEY c1930s, WAR LOANS BOOTH picture