Your One-Stop Source For
Music Lyrics
Bass and Guitar Tabs
and More...
Music Lyrics Bass and Guitar Tabs

 

The Creed Guitar Tabs Are Below

Learn To Read Tab
Chords Handbook
Corrections & Additions
Get Official Tab
Creed tabs @ 911Tabs

Creed - 'Bread of Shame'

From 'Full Circle' Album

Tuning: G# F# B E G# C# <- Tune all down 3 frets, then tune lowest string to G#

Tabbed by jjhand, most of this song is on one guitar

 

 

This song has a similar tone to Staind, who has written most their songs tuned to

Ab/G#, and it definitely adds some variety to Creed's latest album. Mark's tuning

and playing style in this song reminds me of "The Damage Done" (similar tuning 2 frets higher).

 

Please Rate/Comment so I can put up the best tab. Thanks!

 

 

Intro

 

play 3x

|---------------------------------------------| |--------------------------|

|---------------------------------------------| |--------------------------|

|---------------------------------------------| |--------------------------|

|---------------------------------------------| |--------------------------|

|-----14-----15-----12---14---14-----15p14p12-| |-----14-----15-----12-----|

|-0-0----0-0----0-0----0----0----0-0----------| |-0-0----0-0----0-0----12~-|

 

 

 

 

Main Heavy Riff - play 2x, but extend the last bar's rhythms on 2nd time

|--------------------|---------------------|--------------------|-------------------|

|--------------------|---------------------|--------------------|-------------------|

|-----------------4~-|-----------------4/5-|-----------------4~-|-------------------|

|--------------------|---------------------|--------------------|-4---4---4-4-2---2-|

|-----------------2~-|-----------------2/3-|-----------------2~-|-5---5---5-5-3---3-|

|-1~--3~--5~--0------|-1~--3~--5~--0-------|-1~--3~--5~--0------|-------------------|

 

 

 

Verse

|-----------------------------|-----------------------------|----------------------------|

|-----------------------------|-----------------------------|----------------------------|

|-----------------------------|-----------------------------|----------------------------|

|---------------------3-3-3---|-----------------------------|----------------------------|

|-2-2-2-----3-3-3-------------|---5-5-5-----2h3-2h5-2---2h3-|-2-2-2-----3-3-3------------|

|-------0---------0---------0-|---------0-------------0-----|-------0---------0---1-1-1--|

 

"If you say I'm alive I guess I'm living Why should I guess your size, "

 

 

**swipe strings with hand

|-------------------------|-----------------------------|---------------------------|

|-------------------------|-----------------------------|---------------------------|

|-------------------------|-----------------------------|---------------------------|

|-----------**------------|---------------------3-3-3---|---------------------------|

|-----------x\--x\----x\--|-2-2-2-----3-3-3-------------|---5-5-5-----2h3-2h5-3p2-3-|

|-1~-0------x\--x\----x\--|-------0---------0---------0-|---------0-----------------|

 

"a choice I've been given Tell me everything's fine and peace is coming"

 

 

End Verse with:

|---------------------------|-----------|

|---------------------------|-----------|

|---------------------------|-----------|

|---------------------------|-----------|

|-2-2-2-----3-3-3-----------|-----------|

|-------0---------0---1-1-1-|-1~-0------|

"I won't listen to the heartache I'm numbing"

 

 

 

 

Louder Prechorus - play 2x, with lyrics shown

 

|----------------------------|-------------------------------|

|----------------------------|-------------------------------|

|-4-4-4-----5-5-5-----101010-|-----7-7-7---------------------| continue

|----------------------------|---------------PH--PH--PH-PH---| next line

|-2-2-2-----3-3-3-----8-8-8--|-----5-5-5-----2h3-2h5-2--2b3--|

|-------0---------0----------|-0---------0------------0------|

 

1. "When the world casts me down and says I've changed"

2. "Guess there's no one to blame When all you're living on is"

 

 

 

|---------------------------|------------------------|

|---------------------------|------------------------|

|-4-4-4-----5-5-5-----------|------------------------|

|---------------------------|------------------------|

|-2-2-2-----3-3-3-----------|------------------------| 2nd time, play first 2

|-------0---------0---1-1-1-|-1~~-0---0---0---0---0--| <-- notes of this last bar only

 

1. "I'll survive on all the promises you made to me"

2. "bread of shame"

 

 

 

 

 

Chorus - Play 'Main Heavy Riff' with lyrics:

 

Lyrics:

"Bread of Shame, When the world says I've changed

Bread of shame, Just promise me fame I'll survive on the bread of shame"

 

 

 

 

Play Verse again

 

Verse 2 Lyrics:

"As long as you say I'm free, Then keep these chains on me"

"Tell me down is up, I'll let you fill this broken cup"

"When the world fall down Let them fall on me"

"Cause no one's around who believe me"

 

 

Play Louder Prechorus (same lyrics)

 

 

Play Chorus again (same lyrics)

 

 

 

Play Intro with different ending:

play 3x

|---------------------------------------------| |--------------------------|

|---------------------------------------------| |--------------------------|

|---------------------------------------------| |--------------------------|

|---------------------------------------------| |--------------------------|

|-----14-----15-----12---14---14-----15p14p12-| |-----14-----15-----12-12--|

|-0-0----0-0----0-0----0----0----0-0----------| |-0-0----0-0----0-0--------|

 

 

 

Bridge (heavy part before final Chorus) - some squeals are added as this part repeats

|-----||--------------------------|------------------------------|

|-----||--------------------------|------------------------------|

|-----||--------------------------|------------------------------|

|-----||------------------------0-|------------2-----------------|

|-5-3-||-3~-----2p0-2~--2p0-2-2---|----------2---3~--------------|

|-----||----0-0-------------------|-3~--0--0---------0---1-0-1-3-|

 

"Tell me where I sign my name"

 

 

|--------------------------|--------------------------------|

|--------------------------|--------------------------------|

|--------------------------|--------------------------------|

|------------------------0-|--------------2-----------------| play both

|-3~-----2p0-2~--2p0-2-2---|------------2---3~--------------| lines 4x

|----0-0-------------------|-3PH~--0--0---------0---1-3-1-0-|

 

"Inside I find no peace of mind to hide behind, Only bread of shame"

 

 

 

 

Play Chorus again

 

 

Ending - W/ wah

 

Play 3x Ending

|-------------------------| |---------------------------|---------------------|

|-------------------------| |---------------------------|---------------------|

|-------------------------| |---------------------------|---------------------|

|-------------------------| |---------------------------|---------------------|

|---------------------2---| |---------------------------|---------------------|

|-1PH--3PH--5PH~--0-------| |-1PH-3PH-5PH~-1PH-3PH-5PH~-|-1PH-3PH-5PH~--0-----|

 

 

 

key

| / slide up

| \ slide down

| h hammer-on

| p pull-off

| ~ vibrato

| PH pinch harmonic

| x Mute note

 

 

Click here to return to my Creed Guitar Tabs page

The Tablature is Copyright its respective owners.

Sign Up For My Newsletter
Subscribe | Unsubscribe

Site Map | Disclaimer | Privacy Policy | Media Kit | Submissions/Corrections

Website © 2000-2014 mattsmusicpage.com. All rights reserved.

Legal & DMCA: Matt's Music Page has been providing lyrics and tabs in a legal way, paying royalties each year to a few organizations. Then, all lyrics and tabs were removed from the site. Now, there's a new owner to the site, which purchased it August 26, 2014, and he is in negotiation to obtain licensing from BMI at the moment. If you have a specific DMCA request -- please do not hesitate to contact me via the contact button on top. I will do my very best to keep this site fully legal.

Get our toolbar!

 

Hard Rock Pin Las Vegas 4th of july red white and blue guitar
$5.0
Hard Rock Pin Las Vegas 4th of july red white and blue guitar picture


Hard Rock Pin Hollywood Fl Bell Girl with dice luggage and guitar
$5.0
Hard Rock Pin Hollywood Fl Bell Girl with dice luggage and guitar picture


Hard Rock Pin Las Vegas King of Clubs Guitar rare only 3 lines of info on back
$5.0
Hard Rock Pin Las Vegas King of Clubs Guitar rare only 3 lines of info on back picture


Hard Rock Pin Edmonton guitar pin
$5.0
Hard Rock Pin Edmonton guitar pin picture


Lladro Guitar Boy #4614 - Beautiful Piece of Lladro
$109.0
Lladro Guitar Boy #4614 - Beautiful Piece of Lladro picture