Your One-Stop Source For
Music Lyrics
Bass and Guitar Tabs
and More...
>Music Lyrics Bass and Guitar Tabs

 

The Tabs Are Below

Learn To Read Tab
Chords Handbook
Corrections & Additions
Get Official Tab
Creed tabs @ 911Tabs

 

BTAB: Is This The End?

Artist: Creed

Album: None

Author: Rattman (jratt0@hotmail.com)

 

 

**Padrino's Bass Tab Exclusive!**

 

This song is from a live performance on the Edge radio station

(radioedge.com

 

they have it on real audio) it is played on an accoustic bass. It is very

hard to follow. This is one of the strangest songs you will ever hear.

 

Drop D Tuning.

 

 

Intro:

G--------------------------------

D--------------------------------

A----1-0-------------------------

D-0~-----0~-0~-0~-3~-3~-2~-2~-0~-

 

 

Verse:

G----------------------------------------

D----------------------------------------

A-------1-0------------------------------

D-0~-0~-----0~-0-4-4-4-3-3-3-0-0-0-0-0-0-

 

 

Chorus:

"So is this the end...my freind."

G---------------------------------------------------------------------

D---------------------------------------------------------------------

A-------------0-0-0-0-------------------------------------------------

D-0-0-0-0-0-0---------6-6-6-6-6-6-6-6-6-------------------------------

 

"But as the..."

G-----------------------------------------------------------------

D-----------------------------------------------------------------

A-----------------0-0-0-0-0-0-0-0-2-2-2-2-2-2-2-2-----------------

D-0-0-0-0-0-0-0-0---------------------------------6-6-6-6-6-6-6-6-

 

Return to my to my Creed bass tabs page

The Tablature is Copyright its respective owners.

Sign Up For My Newsletter
Subscribe | Unsubscribe

Site Map | Disclaimer | Privacy Policy | Media Kit | Submissions/Corrections

Website © 2000-2014 mattsmusicpage.com. All rights reserved.

Legal & DMCA: Matt's Music Page has been providing lyrics and tabs in a legal way, paying royalties each year to a few organizations. Then, all lyrics and tabs were removed from the site. Now, there's a new owner to the site, which purchased it August 26, 2014, and he is in negotiation to obtain licensing from BMI at the moment. If you have a specific DMCA request -- please do not hesitate to contact me via the contact button on top. I will do my very best to keep this site fully legal.

Get our toolbar!

 


"Meet Me" Over the Rhine Collectible Mugs (set of 2) Lyrics-Earthbound Love Song
$


RARE "Lyrics for a Lute" Frank Dempsey Sherman Hand Signed Original Poem COA
$
RARE


BRAD PAISLEY SIGNED WHISKEY LULLABY AUTOGRAPHED LYRIC SHEET BECKETT BAS
$
BRAD PAISLEY SIGNED WHISKEY LULLABY AUTOGRAPHED LYRIC SHEET BECKETT BAS  picture


COREY TAYLOR SIGNED AUTOGRAPH SLIPKNOT FUNKO POP BECKETT BAS 26 W@W LYRICS
$
COREY TAYLOR SIGNED AUTOGRAPH SLIPKNOT FUNKO POP BECKETT BAS 26 W@W LYRICS picture



$
DANZIG HIDDEN LYRICS  VEROTIK DANZIG BISLEY Signed by DANZIG LTD    picture


Hand Written Lyrics By Lana Del Rey “I’m Pretty When I Cry” & “Lolita” Signed
$
Hand Written Lyrics By Lana Del Rey “I’m Pretty When I Cry” & “Lolita” Signed picture


DANZIG LYRICS of LEFT HAND Vol.II VEROTIK DANZIG BISLEY Signed by DANZIG LTD
$
DANZIG LYRICS of LEFT HAND Vol.II VEROTIK DANZIG BISLEY Signed by DANZIG LTD   picture


George Cooper's 1869 handwritten lyrics to his song "Sweet Genevieve", signed
$
George Cooper's 1869 handwritten lyrics to his song


BRAD PAISLEY SIGNED LITTLE MOMENTS AUTOGRAPHED LYRIC SHEET BECKETT BAS 10
$
BRAD PAISLEY SIGNED LITTLE MOMENTS AUTOGRAPHED LYRIC SHEET BECKETT BAS 10 picture


BRAD PAISLEY SIGNED ALCOHOL AUTOGRAPHED LYRIC SHEET BECKETT BAS 9
$
BRAD PAISLEY SIGNED ALCOHOL AUTOGRAPHED LYRIC SHEET BECKETT BAS 9 picture