Your One-Stop Source For
Music Lyrics
Bass and Guitar Tabs
and More...
Music Lyrics Bass and Guitar Tabs

 

The Tabs Are Below

Learn To Read Tab
Chords Handbook
Corrections & Additions
Get Official Tab
Creed tabs @ 911Tabs

 

 Creed

Are You Ready

 

 

Date: Wed, 07 Jun 2000

From: Joakim Ax

To: Tabcrawler

Subject: TAB: "Are you ready" by Creed ("Human Clay")

 

Tuning is Drop D (DADGBe)

 

Intro (w/chorus)

D5

E-------------------------------------------------

B-------------------------------------------------

G------------------------------------------2------ play 2 times

D-----------------------------------------0---0---

A--3-5--3h5-5--3h5-5b(6)b5--3-5--3h5-5--/1---1--/3

D--0------------------------0---------------------

 

Verse (w/dist)

 

E-------------------------------------------------

B-------------------------------------------------

G------------------------------------------------- play 6 times

D---------------------------------------------\3---

A--3h5-5--3-5--3h5-5b(6)b5--3h5-5--3-5----\1--\1-\3

D--0------------------------0-----------x-\1-----\3

 

Chorus

 

E-----------------------------------------------------------------------

B-----------------------------------------------------------------------

G--10------(10)--------------------------------------------------------- *2

D--10--------7-----------/5h7-7--/2h4-4----------2h4p2p0---------2h4p2p0

A--10--------8----5b\0-------------------2h4h5-5----------/3/5----------

D--10--------9----5b\0--------------------------------------------------

 

Bridge (w/chorus)

 

E-----------------------------------------------------

B---------------------------------------------/7------

G-----14--12--11--4h5p4-2--------2-----4---4h5----5-4- play 6 times

D---0--0---0---0--0-------4h5p4--0--4h5---5----------- (...ten,nine,eight)

A-----------------------------------------------------

D--0----------------------0---------------------------

 

Bridge (w/dist) 4 times

 

Bridge2

 

D------------------

A--3--5--9--7--10-9 play 4 times (...life has just begun...)

D--0--0--0--0---0-0

 

Chorus *3

 

Bridge2 *4

 

End with A-10- That´s it basically, for corrections or comments

D--0- my e mail is eldgaffel@hotmail.com

 

Return to my to my Creed tabs page

The Tablature is Copyright its respective owners.

Sign Up For My Newsletter
Subscribe | Unsubscribe

Site Map | Disclaimer | Privacy Policy | Media Kit | Submissions/Corrections

Website © 2000-2014 mattsmusicpage.com. All rights reserved.

Legal & DMCA: Matt's Music Page has been providing lyrics and tabs in a legal way, paying royalties each year to a few organizations. Then, all lyrics and tabs were removed from the site. Now, there's a new owner to the site, which purchased it August 26, 2014, and he is in negotiation to obtain licensing from BMI at the moment. If you have a specific DMCA request -- please do not hesitate to contact me via the contact button on top. I will do my very best to keep this site fully legal.

Get our toolbar!