Your One-Stop Source For
Music Lyrics
Bass and Guitar Tabs
and More...
Music Lyrics Bass and Guitar Tabs

 

The Coldplay Bass Tabs Are Below

Learn To Read Tab
Chords Handbook
Corrections & Additions
Get Official Tab
Coldplay tabs @ 911Tabs

Coldplay- White Shadows

 

Intro and verses

 

G----------------------|

D-6-6-6-6-6-6-4-6---6--|

A-----------------6----|

E----------------------|

 

Bridge

 

G-99-8-----9-8--------------9-8-------6-|

D------9--------9—11-9-11-9----11-9-----|

A--------7------------------------------|

E---------------------------------------|

 

Chorus

 

G------------------|

D-6-6--------------|

A-----7-7-----6-6--| x4

E---------7-7------|

 

 

Return to my Coldplay Bass Tabs page

The Tablature is Copyright its respective owners.

Sign Up For My Newsletter
Subscribe | Unsubscribe

Site Map | Disclaimer | Privacy Policy | Media Kit | Submissions/Corrections

Website © 2000-2014 mattsmusicpage.com. All rights reserved.

Legal & DMCA: Matt's Music Page has been providing lyrics and tabs in a legal way, paying royalties each year to a few organizations. Then, all lyrics and tabs were removed from the site. Now, there's a new owner to the site, which purchased it August 26, 2014, and he is in negotiation to obtain licensing from BMI at the moment. If you have a specific DMCA request -- please do not hesitate to contact me via the contact button on top. I will do my very best to keep this site fully legal.

Get our toolbar!