Your One-Stop Source For
Music Lyrics
Bass and Guitar Tabs
and More...
>Music Lyrics Bass and Guitar Tabs

 

The Coldplay Bass Tabs Are Below

Learn To Read Tab
Chords Handbook
Corrections & Additions
Get Official Tab
Coldplay tabs @ 911Tabs

Artist: Coldplay

Song: Violet Hill

Tabbed by Noobassist

 

Hi was trying out Jomalole's tab and found it rather different from what i heard in the

so decided to edit it. My first tab plese rate thanks.

 

VIOLET HILL

COLDPLAY

VIVA LA VIDA OR DEATH AND ALL HIS FRIENDS

 

VERSE 1

Clearly I remember...

G|-----------------------------------------------------------|

D|-----------------------------------------------------------|

A|-4-4---2-6-2--4-4---2-6-2----------------------------------|

E|-----4------------4-------5-5-5-5-2-2-21-1-0---------------|

 

PRE-CHORUS 1

When the future's architectured...

G|-----------------------------------------------------------|

D|-----------------------------------------------------------|

A|---------2-2-2-2-4-4-4/11-2-2-2----------------------------|

E|-5-5-5-5---------------------------------------------------|

 

CHORUS

If you love me won’t you let me know?

G|-------------------------------------------------------|

D|-------------------------------------------------------|

A|-------------4~-2~-4-4-4-4-4-4-4-4---------------------|

E|-4~-5~-4~-0~-------------------------------------------|

 

VERSE 2

Was a long and dark December...

G|-----------------------------------------------------------------|

D|----------------------------11-9h11-9h11\------------------------|

A|-4-4---2-6-2--4-4---2-6-2----------------------------------------|

E|-----4------------4----------------------2-2-21-1-0--------------|

 

G|-----------------------------------------------------------------|

D|----------------------------11-9h11-9h11\------------------------|

A|-4-4---2-6-2--4-4---2-6-2----------------------------------------|

E|-----4------------4----------------------2-2-21-1-0--------------|

 

PRE-CHORUS 2

Bury me in honour...

G|-------------------------------------------------------------|

D|-------------------------------------------------------------|

A|-------------2-2-2/9--4-4-11\4--2-2-2------------------------|

E|-5-5-5/12----------------------------------------------------|

 

CHORUS

If you love me won’t you let me know?

G|-------------------------------------------------------|

D|-------------------------------------------------------|

A|-------------4~-2~-4-4-4-4-4-4-4-4---------------------|

E|-4~-5~-4~-0~-------------------------------------------|

 

SOLO

G|-----------------------------------------------------------|

D|-----------------------------------------------------------|

A|-4-4-4-4-4-4---2-6-2---------------------------------------|

E|-------------4--------5-5-5-5-2-2-21-1-0-------------------|

 

G|-----------------------------------------------------------|

D|-----------------------------------------------------------|

A|-4-4---2-6-2--4-4---2-6-2----------------------------------|

E|-----4------------4--------5-5-5-5-2-2-21-1-0--------------|

 

 

PRE-CHORUS 3

G|-------------------------------------------------------------|

D|-------------------------------------------------------------|

A|-------------2-2-2/9--4-4-11\4--2-2-2------------------------|

E|-5-5-5/12----------------------------------------------------|

 

CHORUS

If you love me won’t you let me know?

G|-------------------------------------------------------|

D|-------------------------------------------------------|

A|-------------4~-2~-4-4-4-4-4-4-4-4---------------------|

E|-4~-5~-4~-0~-------------------------------------------|

Return to my Coldplay Bass Tabs page

The Coldplay Tablature is Copyright its respective owners.

Sign Up For My Newsletter
Subscribe | Unsubscribe

Site Map | Disclaimer | Privacy Policy | Media Kit | Submissions/Corrections

Website © 2000-2014 mattsmusicpage.com. All rights reserved.

Legal & DMCA: Matt's Music Page has been providing lyrics and tabs in a legal way, paying royalties each year to a few organizations. Then, all lyrics and tabs were removed from the site. Now, there's a new owner to the site, which purchased it August 26, 2014, and he is in negotiation to obtain licensing from BMI at the moment. If you have a specific DMCA request -- please do not hesitate to contact me via the contact button on top. I will do my very best to keep this site fully legal.

Get our toolbar!

 

Gibson Guitars - Slash - 1992 - Print Advertisement
$9.95
Gibson Guitars - Slash - 1992 - Print Advertisement picture


Gibson Guitars - Jimi Hendrix- - 1992- Print Advertisement
$9.95
Gibson Guitars - Jimi Hendrix-  - 1992-  Print Advertisement picture


LOT OF MISC Vintage LOOPSTICK ANTENNA GUITAR AMP Radio switch PARTS LOT
$58.0
LOT OF MISC Vintage LOOPSTICK  ANTENNA GUITAR AMP Radio switch PARTS LOT picture


Valentine~Colonial Couple Serenaded By Musician~Guitar~Powdered Hair~Emb~Germany
$6.5
Valentine~Colonial Couple Serenaded By Musician~Guitar~Powdered Hair~Emb~Germany picture


Silver w/CZ "ASHLEY" Charm Metal Keychain w/Ring New in Box, Guitar Pick
$7.95
Silver w/CZ