Your One-Stop Source For
Music Lyrics
Bass and Guitar Tabs
and More...
Music Lyrics Bass and Guitar Tabs

 

The Coldplay Bass Tabs Are Below

Learn To Read Tab
Chords Handbook
Corrections & Additions
Get Official Tab
Coldplay tabs @ 911Tabs

I found this really eerie song on kazaa and has liked it ever since,

Im pretty sure its 99% Correct minus some hammer ons but hey submit 1 if u can beat me

 

Intro/Verse

G-----------------------------------------

D----------------------------------------- X2

A-3----3-3 ---3—3-3 ------------3---3

E -------------------------1----3---------

 

00:44-48 Fill in

G------------------

D------------------

A----3----3-------

E------------------1

 

 

 

Pre-Chorus (And It’s Just Like you said…)

G-----------------------------------------

D----------------------------------------- X2

A--------------1---1-1-------------------

E----1---1-1-----------------------------

 

 

1:02-1:08 Fill In

G------------

D------------

A----3—3-3

E------------

 

 

INTRO/verse

 

It’s the same notes, just find the rhythm and listen to the song for it.

 

 

1:33 Pre-chorus X2

 

 

1:47-2:10 Bridge

G------------------

D------------------

A------------------

E---3—3—1—1-

 

2:16-2:58(Such a rush, such a rush….)

G-------------------------------------

D-------------------------------------

A—3—3-3------------------------1

E -------------1—1—1------1--3—

 

 

 

2:59- 3:20 (Look @ all the people …money)

 

A----3—3----- –3---3-----------------------------1

E--------------3---3----3—1----1-----1 --1 ---3

 

Outro

 

G-------------------------------------

D-------------------------------------

A—3—3-3------------------------1------

E -------------1—1—1------1--3—------- till fade

Return to my Coldplay Bass Tabs page

The Tablature is Copyright its respective owners.

Sign Up For My Newsletter
Subscribe | Unsubscribe

Site Map | Disclaimer | Privacy Policy | Media Kit | Submissions/Corrections

Website © 2000-2014 mattsmusicpage.com. All rights reserved.

Legal & DMCA: Matt's Music Page has been providing lyrics and tabs in a legal way, paying royalties each year to a few organizations. Then, all lyrics and tabs were removed from the site. Now, there's a new owner to the site, which purchased it August 26, 2014, and he is in negotiation to obtain licensing from BMI at the moment. If you have a specific DMCA request -- please do not hesitate to contact me via the contact button on top. I will do my very best to keep this site fully legal.

Get our toolbar!