Your One-Stop Source For
Music Lyrics
Bass and Guitar Tabs
and More...
Music Lyrics Bass and Guitar Tabs

 

The Coldplay Bass Tabs Are Below

Learn To Read Tab
Chords Handbook
Corrections & Additions
Get Official Tab
Coldplay tabs @ 911Tabs

SONG: Spies

BAND: Coldplay

ALBUM: Parachutes

TABBED BY: Yalýn "Spinky" Kaya

 

Spies is really a lesson for beginners about how bass can be used to give

harmony&melody to a song. These chords are on my bass, you should transpose

it, if your bass has the classic (B)EADG chords.

 

 

----------------------------------------------------------

vocabulary: h= hammer on

*= stop the sound, hold the string

/= slide

//= slide slowly

->/= keep the note and slide after

----------------------------------------------------------

 

 

Rest until "'cos they're all spies"

 

CHORUS:

F | ---------------------------- | |

C | ---------------------------- | |

G | --6-6*--9-8h9--------------- > x3 |

D | --------------9-9*--6-6*---- | |

A | ---------------------------- | |

> x2

F | ---------------------------- |

C | ---------------------------- |

G | ----------4------4*-4------- |

D | --4-4*--4---4*--------6-6*-- |

A | ---------------------------- |

 

 

"I awake to see that no one is free"

 

VERSE-1:

F | ------------------------------------------------------------------------------------------

C | ------------------------------------------------------------------------------------------

G | --6---6*-6--------------------------------------------------------------------------------

D | -------------6---6*-6---7---7*-7---6---6*-6---4---4*-4---6---6*-6---7---7*-7---6---6*-6---

A | ------------------------------------------------------------------------------------------

 

 

"but the spies came out of the water"

 

VERSE-2

F | ------------------------------------------------------

C | --------------------------------------------9-->/11---

G | --6-------------6-------------6-----------------------

D | ---------6------------4/6------------6----------------

A | ------------------------------------------------------

 

 

Play CHORUS-1 again with "'cos they're all spies"

 

 

Start together with the lyrics -->"And if we don't buy here"

 

BRIDGE:

F | ------------------------------------------------------------------------------

C | -------8--------------------------------------------118-8--8-----------------

G | --6-------6-------6----------6---7/87-6--------------------------------------

D | ---------------6------6-5--3----------------4///9---------------9-6---5---6---

A | ------------------------------------------------------------------------------

end with "they're gonna find us"

 

then play CHORUS-1 again

 

VERSE-2

F | ------------------------------------------------------

C | ------------------------------------------------------

G | --6-------------6-------------6-----------------------

D | ---------6-------------4-----------96------7------9--

A | ------------------------------------------------------

 

OUTRO:

F | ------------------------------ |

C | ------------------------------ |

G | --6--------------------------- > play till the end, finish with C#

D | ---------7------9------9------ |

A | ------------------------------ |

 

 

If you find it boring to play the same thing till the end, you can play

this to give a good background effect.

OUTRO(optional):

F | --20-----20-----22-----22----- |

C | --20-----21-----23-----23----- |

G | ------------------------------ > play till the end; if you can vibrate

D | ------------------------------ | the notes it gives a better sound.

A | ------------------------------ |

 

 

For any comments contact me: yalinkaya@pranga.com

 

Return to my Coldplay Bass Tabs page

The Tablature is Copyright its respective owners.

Sign Up For My Newsletter
Subscribe | Unsubscribe

Site Map | Disclaimer | Privacy Policy | Media Kit | Submissions/Corrections

Website © 2000-2014 mattsmusicpage.com. All rights reserved.

Legal & DMCA: Matt's Music Page has been providing lyrics and tabs in a legal way, paying royalties each year to a few organizations. Then, all lyrics and tabs were removed from the site. Now, there's a new owner to the site, which purchased it August 26, 2014, and he is in negotiation to obtain licensing from BMI at the moment. If you have a specific DMCA request -- please do not hesitate to contact me via the contact button on top. I will do my very best to keep this site fully legal.

Get our toolbar!

 

Starbucks You Are Here Coffee Mug/Cup KENTUCKY - Horses, Banjo, Blue, White
$19.99
Starbucks You Are Here Coffee Mug/Cup KENTUCKY - Horses, Banjo, Blue, White picture


KNOWLES ROCKWELL HERITAGE "THE BANJO PLAYER" FIRST EDITION 1989 PLATE COA
$5.99
KNOWLES ROCKWELL HERITAGE


Vintage Postcard 1981 Disney World Banjo Kings Main Street USA 1981 Postmark
$4.99
 Vintage Postcard 1981 Disney World Banjo Kings Main Street USA 1981 Postmark picture


Banjo Barometer With Thermometer Hygrometer 490mm
$84.76
Banjo Barometer With Thermometer Hygrometer 490mm picture


ANTIQUE JAPANESE NIPPON FIGURINE SET OF 3 WOMEN GEISHA PLAYING DRUM BANJO FAN
$24.0
ANTIQUE JAPANESE NIPPON FIGURINE SET OF 3 WOMEN GEISHA PLAYING DRUM BANJO FAN picture