Your One-Stop Source For
Music Lyrics
Bass and Guitar Tabs
and More...
Music Lyrics Bass and Guitar Tabs

 

The Coldplay Bass Tabs Are Below

Learn To Read Tab
Chords Handbook
Corrections & Additions
Get Official Tab
Coldplay tabs @ 911Tabs

Paradise - Coldplay

-------------------------------------------------------------------------------

 

Tabbed By : Coldplayfan15

 

 

Tuning: Standard

 

This is my first tab so if there is anything wrong just tell me and i'll fix it

After the keyboard entrance

G|--------------------------------------------------------------------------|

D|---------------------------------3-3-5h2-2-2-2----------------------------|

A|----------------------------3h5-------------------------------------------|

E|------6-5-3---3-3h5-6-6-6-6---------------------6-5-3-3-3---3-3-5-6-6-6-6-|

 

G|--------------------------------------------------------------------------|

D|-------3-3-3h5------------------------------------------------------------|

A|-3h5------------3-3-3-3---------------------------------------------------|

E|--------------------------------------------------------------------------|

 

repeats through the whole song

 

 

| / slide up

| \ slide down

| h hammer-on

| p pull-off

| ~ vibrato

| + harmonic

| x Mute note

===============================================================================

Return to my Coldplay Bass Tabs page

The Coldplay Tablature is Copyright its respective owners.

Sign Up For My Newsletter
Subscribe | Unsubscribe

Site Map | Disclaimer | Privacy Policy | Media Kit | Submissions/Corrections

Website © 2000-2014 mattsmusicpage.com. All rights reserved.

Legal & DMCA: Matt's Music Page has been providing lyrics and tabs in a legal way, paying royalties each year to a few organizations. Then, all lyrics and tabs were removed from the site. Now, there's a new owner to the site, which purchased it August 26, 2014, and he is in negotiation to obtain licensing from BMI at the moment. If you have a specific DMCA request -- please do not hesitate to contact me via the contact button on top. I will do my very best to keep this site fully legal.

Get our toolbar!