Your One-Stop Source For
Music Lyrics
Bass and Guitar Tabs
and More...
Music Lyrics Bass and Guitar Tabs

 

The Coldplay Bass Tabs Are Below

Learn To Read Tab
Chords Handbook
Corrections & Additions
Get Official Tab
Coldplay tabs @ 911Tabs

Basstab for: Coldplay - Major Minus

 

Tab: PianoRocker

Tempo = 110

Notes: This tab is as far I can find out 100% correct. Do not copy this tablature

without my approval.

 

Legend

 

h - hammer on/pull off

/ - slide-up

\ - slide-down

 

- Pre-Chorus

G |----------------------------|-------|----------------------------|-------|

D |----------------------------|-------|----------------------------|-------|

A |--3-----------------3--3g/--|--12---|--3-----------------3--3g/--|--12---|

E |----------------------------|-------|----------------------------|-------|

 

- Chorus

----------------------------------------------------|

----------------------------------------------------|

--7\----------------------------5-------------------|

--------------0--------0g-5h-7--------------7-------|

 

 

----------------------------------------------------|

----------------------------------------------------|

--7\----------------------------5-------------------|

--------------0--------0g-5h-7--------------5-------|

 

 

----------------------------------------------------|

----------------------------------------------------|

--------------5--------5g-------5-------------------|

--7-----------------------5h-7--------------5-------|

 

 

----------------------------------------------------|

----------------------------------------------------|

--------------5--------5g-------5-------------------|

--7-----------------------5h-7--------------7-------|

 

- Verse

----------------------------|----------------------------|

----------------------------|----------------------------|

--7--7--------7-------------|-----7--7-----7-------------|

----------------------------|----------------------------|

 

 

----------------------------|----------------------------|

----------------------------|----------------------------|

--5--5--------5-------------|-----2--2-----2-------------|

----------------------------|----------------------------|

 

- Before interlude

----------------------------|----------------------------|

----------------------------|----------------------------|

--3-----3--------3-----3g/--|--12----12-------12---------|

----------------------------|----------------------------|

 

 

----------------------------|----------------------------|

----------------------------|----------------------------|

--3-----3--------3-----3g/--|--12----12-------12---------|

----------------------------|----------------------------|

 

- Interlude(with minor variations)

||------|-------|-------|----------------|-------|-------|-------|------||

||o14---|--12---|--10---|--10-------12---|--14---|--12---|--10---|--10-o||

||------|-------|-------|----------------|-------|-------|-------|-----o||

||------|-------|-------|----------------|-------|-------|-------|------||

 

Play before ending the song the chorus a few times.

 

- End note

----------------------------||

----------------------------||

--7-------------------------||

----------------------------||

Return to my Coldplay Bass Tabs page

The Coldplay Tablature is Copyright its respective owners.

Sign Up For My Newsletter
Subscribe | Unsubscribe

Site Map | Disclaimer | Privacy Policy | Media Kit | Submissions/Corrections

Website © 2000-2014 mattsmusicpage.com. All rights reserved.

Legal & DMCA: Matt's Music Page has been providing lyrics and tabs in a legal way, paying royalties each year to a few organizations. Then, all lyrics and tabs were removed from the site. Now, there's a new owner to the site, which purchased it August 26, 2014, and he is in negotiation to obtain licensing from BMI at the moment. If you have a specific DMCA request -- please do not hesitate to contact me via the contact button on top. I will do my very best to keep this site fully legal.

Get our toolbar!