Your One-Stop Source For
Music Lyrics
Bass and Guitar Tabs
and More...
Music Lyrics Bass and Guitar Tabs

 

The Tabs Are Below

Learn To Read Tab
Chords Handbook
Corrections & Additions
Get Official Tab
Coldplay tabs @ 911Tabs

LIFE IS FOR LIVING (Hidden Song) - Simple fingerpicking

 

==============================================================================

 

Standard Tuning - E A D G B E with a Capo at Fret 1

 

A F#m7 Esus4 E Dsus2 Bm7 A Asus4 A

|--0----2-----0---0----0----2----0---0---0--|

|--2----2-----0---0----3----3----2---3---2--|

|--2----2-----2---1----2----2----2---2---2--|

|--2----2-----2---2----0----4----2---2---2--|

|--0----4-----2---2---------2----0---0---0--|

|-------2-----0---0-------------------------|

 

Break:

 

|--0---0---0----0---0---0--|-0---0---0--|

|--0---2---3----0---0---0--|-0---2---3--|

|--1---1---1----2---4---6--|-1---1---1--|

|--2---2---2----0---0---0--|-2---2---2--|

|--2---2---2---------------|-2---2---2--|

|--0---0---0---------------|-0---0---0--|

 

 

 

Return to my Coldplay tabs page

The Tablature is Copyright its respective owners.

Sign Up For My Newsletter
Subscribe | Unsubscribe

Site Map | Disclaimer | Privacy Policy | Media Kit | Submissions/Corrections

Website © 2000-2014 mattsmusicpage.com. All rights reserved.

Legal & DMCA: Matt's Music Page has been providing lyrics and tabs in a legal way, paying royalties each year to a few organizations. Then, all lyrics and tabs were removed from the site. Now, there's a new owner to the site, which purchased it August 26, 2014, and he is in negotiation to obtain licensing from BMI at the moment. If you have a specific DMCA request -- please do not hesitate to contact me via the contact button on top. I will do my very best to keep this site fully legal.

Get our toolbar!