Your One-Stop Source For
Music Lyrics
Bass and Guitar Tabs
and More...
Music Lyrics Bass and Guitar Tabs

 

The Coldplay Bass Tabs Are Below

Learn To Read Tab
Chords Handbook
Corrections & Additions
Get Official Tab
Coldplay tabs @ 911Tabs

HURTS LIKE HEAVEN - Coldplay

-------------------------------------------------------------------------------

 

Tabbed By : Alex

e-mail:

 

Tuning: Drop D

 

Note that different parts can be played differently on different

live shows.

 

0:42

After MX Intro:

G|-------------------|

D|-------------------|

A|-1~---1~-3~--------|

D|-----------1~---1~-|2x

 

G|----------------------|

D|----------------------|

A|----------------------|

D|-3~----3~----1~----1~-|

 

1:14

Chorus

G|-------------------------------|

D|-------------------------------|

A|-1-1-1~-1-1-1-3~---------------|

D|-------------------1-1-1~-1-1~-|

 

Say ooo

G|---------------|

D|---------------|

A|-1-1-1~-1-1-1~-|

E|---------------|

 

01:30

Oh you, use your heart as a weapon...

G|--------|

D|--------|

A|--------|

D|-3~--1~-|

 

01:35

G|---------------------------------|

D|---------------------------------|

A|-1-1-1~-1-1-1-3~-----------------|

D|-------------------1-1-1~-1-1-1~-|2x

 

Verse

G|---------------------------------|

D|---------------------------------|

A|-1-1-1~-1-1-1-3~-----------------|

D|-------------------1-1-1~-1-1-1~-|

 

02:18

G|--------------------------|

D|--------------------------|

A|--------------------------|

D|-3-3-3~--3-3~-1-1-1~-1-1~-|

 

02:29

Chorus

G|---------------------------------|

D|---------------------------------|

A|-1-1-1~-1-1-1-3~-----------------|

D|-------------------1-1-1~-1-1-1~-|2x

 

05:20

Oh you, use your heart as a weapon...

G|--------|

D|--------|

A|--------|

D|-3~--1~-|

 

02:56

Guitar solo

G|---------------------------------|

D|---------------------------------|

A|-1-1-1~-1-1-1-3~-----------------|

D|-------------------1-1-1~-1-1-1~-|2x

 

G|-----------------------------|

D|-----------------------------|

A|-----------------1-1-1--1--1-|

D|-3-3-3~---1-1-1~-------------|

 

03:25

Bridge: It's true...

G|-----------------------|

D|-----------------------|

A|-5-5-5~----------------|

D|---------3-3-3~-1-1-1~-|

 

Outro

G|-3~---------|

D|------------|

A|-----3~3/6~-|

D|------------|

Keep repeating.

Return to my Coldplay Bass Tabs page

The Coldplay Tablature is Copyright its respective owners.

Sign Up For My Newsletter
Subscribe | Unsubscribe

Site Map | Disclaimer | Privacy Policy | Media Kit | Submissions/Corrections

Website © 2000-2014 mattsmusicpage.com. All rights reserved.

Legal & DMCA: Matt's Music Page has been providing lyrics and tabs in a legal way, paying royalties each year to a few organizations. Then, all lyrics and tabs were removed from the site. Now, there's a new owner to the site, which purchased it August 26, 2014, and he is in negotiation to obtain licensing from BMI at the moment. If you have a specific DMCA request -- please do not hesitate to contact me via the contact button on top. I will do my very best to keep this site fully legal.

Get our toolbar!

 

1939 LYRIC THEATRE New York PHOTO
$5.83
1939 LYRIC THEATRE New York PHOTO picture


Star Spangled Banner or Marines Hymn lyrics signed by WWII Charles W. Lindberg
$10.0
Star Spangled Banner or Marines Hymn lyrics signed by WWII Charles W. Lindberg picture


OLD LARGE HISTORIC PHOTO OF THE LYRIC THEATRE, SYDNEY c1930s, WAR BONDS BOOTH
$7.42
OLD LARGE HISTORIC PHOTO OF THE LYRIC THEATRE, SYDNEY c1930s, WAR BONDS BOOTH picture


SONG OF REVOLUTION CARD SET WITH 13 MOST FAVORED COMMUNIST SONGS LYRICS + NOTES
$24.99
SONG OF REVOLUTION CARD SET WITH 13 MOST FAVORED COMMUNIST SONGS LYRICS + NOTES picture


OLD LARGE HISTORIC PHOTO OF THE LYRIC THEATRE, SYDNEY c1930s, WAR LOANS BOOTH
$7.42
OLD LARGE HISTORIC PHOTO OF THE LYRIC THEATRE, SYDNEY c1930s, WAR LOANS BOOTH picture