Your One-Stop Source For
Music Lyrics
Bass and Guitar Tabs
and More...
Music Lyrics Bass and Guitar Tabs

 

The Coldplay Bass Tabs Are Below

Learn To Read Tab
Chords Handbook
Corrections & Additions
Get Official Tab
Coldplay tabs @ 911Tabs

Intro:

G|----------------|----------------|----------------|----------------|----------------|

D|-------0-1--1-1-|-1--------------|----------------|--0-1--1-1--1-1-|-1-1--1-3--3-3--|

A|-3-1-3----------|-------------3--|3-3--3-3--1-3-1-|3---------------|----------------|

E|----------------|---3--3-3--3----|----------------|----------------|----------------|

 

|------------|

|3-3--3-3--3-|

|------------|

|------------|

 

Verse 1:

G|----------------|----------------|----------------|----------------|-----------------|

D|5--5-5--0-1--1-1|--0-------------|----------------|0-1--1-1--0-----|--------------3-5|

A|----------------|----1--1-1--3-5-|-5-5--0---------|------------1--1|-1--3-5--5-5-----|

E|----------------|----------------|--------3--3-3--|----------------|-----------------|

 

|----------------|----------------|----------------|----------------|----------|

|5-5--0-1--1-1--0|----------------|------------0-1-|-1-1--0---------|----------|

|----------------|-1--1-1--3-5--5-|5--0------------|--------1--1-1--|3-5--5-5--|

|----------------|----------------|-----3--3-3-----|----------------|----------|

 

Chorus: "I can feel it go down..."

G|----------------|----------------|----------------|----------------|----------------|

D|0-1--1-1--1-1--1|-1--1-----------|3--3-3--3-1--1-1|--1-1--1-1--1---|--------3--3-3--|

A|----------------|------1--1-1--1-|----------------|--------------1-|-1-1--1---------|

E|----------------|----------------|----------------|----------------|----------------|

 

|----------------|----------------|-------|

|3-1--1-1--1-1--1|1--1-----------3|--3-3--|

|----------------|-----1--1-1--1--|-------|

|----------------|----------------|-------|

 

"Ohh and I...."

G|----------------|----------------|-------|

D|3-5--5-3--3-1--1|-0--0-----------|-------|

A|----------------|------3--3-3--3-|3--3-3-|

E|----------------|----------------|-------|

 

Musical interlude: "I wish that I could work it out..."

G|----------------|----------------|----------------|----------------|-----------------|

D|0----5-5--0-1--1|1--0------------|------3-5--5-5--|0-1--1-1--0-----|-------------3-5-|

A|--3-------------|-----1--1-1--3-5|--5-5-----------|------------1--1|1--3-5--5-5------|

E|----------------|----------------|----------------|----------------|-----------------|

 

Verse 2:

G|---------------|----------------|----------------|----------------|-----------------|

D|--5-5--0-1--1-1|--0-------------|----------------|0-1--1-1--0-----|--------------3-5|

A|---------------|----1--1-1--3-5-|-5-5--0---------|------------1--1|-1--3-5--5-5-----|

E|---------------|----------------|--------3--3-3--|----------------|-----------------|

 

|----------------|----------------|----------------|----------------|----------|

|5-5--0-1--1-1--0|----------------|------------0-1-|-1-1--0---------|----------|

|----------------|-1--1-1--3-5--5-|5--0------------|--------1--1-1--|3-5--5-5--|

|----------------|----------------|-----3--3-3-----|----------------|----------|

 

Chorus:

G|----------------|----------------|----------------|----------------|----------------|

D|0-1--1-1--1-1--1|-1--1-----------|3--3-3--3-1--1-1|--1-1--1-1--1---|--------3--3-3--|

A|----------------|------1--1-1--1-|----------------|--------------1-|-1-1--1---------|

E|----------------|----------------|----------------|----------------|----------------|

 

|----------------|----------------|-------|

|3-1--1-1--1-1--1|1--1-----------3|--3-3--|

|----------------|-----1--1-1--1--|-------|

|----------------|----------------|-------|

 

"Ohh and I....."

G|----------------|----------------|----------------|----------------|--------------|

D|3-5--5-3--3-1--1|-0--0-----------|----------5--5-3|--3-1--1-0--0-3-|-3-3--3-3--3-3|

A|----------------|------3--3-3--3-|3--3-3--3-------|----------------|--------------|

E|----------------|----------------|----------------|----------------|--------------|

 

"I wonder what it's all about..."

G|----------------|----------------|-----------------|----------------|-----------------|

D|3-1--1-1--1-----|----------------|-----------0-1--1|1--1------------|-----------------|

A|----------------|-----3--3-3--3-3|--1-3-1-3--------|---------------3|--3-3--3-3--1-3-1|

E|------------3--3|3--3------------------------------|-----3--3-3--3--|-----------------|

 

|----------------|----------------|-----------------|----------------|--------------|

|--0-1--1-1--1---|----------------|-----------0-1--1|1--1-1--1-1--1-3|-3-3--3-3--3-3|

|3---------------|-------3--3-3--3|3--1-3-1-3-------|----------------|--------------|

|--------------3-|3-3--3----------|-----------------|----------------|--------------|

 

"Everything I know is wrong..."

G|----------------|----------------|-----------------|-----------------|-------------|

D|3-1--1-1--1-----|----------------|---------0-1--1-1|-1---------------|-------------|

A|----------------|-----3--3-3--3-3|-1-3-1-3---------|-------------3--3|3--3-3--1-3-1|

E|------------3--3|3--3------------|-----------------|---3--3-3--3-----|-------------|

 

|-----------------|----------------|-----------------|-----------------|-------------|

|--0-1--1-1--1----|----------------|-----------0-1--1|1--1-1--1-1--1-3-|3-3--3-3--3-3|

|3----------------|-------3--3-3--3|3--1-3-1-3-------|-----------------|-------------|

|--------------3--|3-3--3----------|-----------------|-----------------|-------------|

 

|-----------------|----------------|----------|

|--3-1--1-1--1-1--|1-1--1-3--3-3--3|3--3-3--3-|

|-----------------|----------------|----------|

|-----------------|----------------|----------|

 

Outro: Repeat till end

G|----------------|----------------|----------|

D|1--1-1--1-------|----------------|--------0-|

A|----------------|---3--3-3--3-3--|1-3-1-3---|

E|----------3--3-3|-3--------------|----------|

 

Return to my Coldplay Bass Tabs page

The Tablature is Copyright its respective owners.

Sign Up For My Newsletter
Subscribe | Unsubscribe

Site Map | Disclaimer | Privacy Policy | Media Kit | Submissions/Corrections

Website © 2000-2014 mattsmusicpage.com. All rights reserved.

Legal & DMCA: Matt's Music Page has been providing lyrics and tabs in a legal way, paying royalties each year to a few organizations. Then, all lyrics and tabs were removed from the site. Now, there's a new owner to the site, which purchased it August 26, 2014, and he is in negotiation to obtain licensing from BMI at the moment. If you have a specific DMCA request -- please do not hesitate to contact me via the contact button on top. I will do my very best to keep this site fully legal.

Get our toolbar!