Your One-Stop Source For
Music Lyrics
Bass and Guitar Tabs
and More...
Music Lyrics Bass and Guitar Tabs

 

The Coldplay Bass Tabs Are Below

Learn To Read Tab
Chords Handbook
Corrections & Additions
Get Official Tab
Coldplay tabs @ 911Tabs

Coldplay - Green Eyes

Tabbed By - Chate

 

 

Middle (2:06) (“The Green Eyes, you’re the one that...”)

Bm Dsus2 A E/G#

G|-----------------|-----------------|-----------------|-----------------|

D|-----------------|----7-----7--7---|-7-7-----7-7---7-|-6-6-----6-6-----| X 2

A|----9-----9--9---|-5-----5-------5-|-----7-7-----7---|-----7-7-----7---|

E|-7-----7-------7-|-----------------|-----------------|-----------------|

 

Chorus (“Coz I came here with a load...”)

Bm Dsus2 A G Dsus2

G|-----------------|-----------------|-----------------|-----------------|

D|-----------------|----7-----7--7---|-7-7-----5-5---5-|----7------------| X 2

A|----9-----9--9---|-5-----5-------5-|-----7-7-----5---|-5-----5---5--4--|

E|-7-----7-------7-|-----------------|-----------------|-----------------|

 

Outro (“The Green Eyes, the Green Eyes, oh-wo-oh-oh...”)

Bm A Bm

G|-----------------|-----------------|-----------------|-----------------|

D|-----------------|-----------------|-----------------|-----------------|

A|-----------------|-----------------|-----------------|-----------------|

E|-7-------7----7--|-7-------7----7--|-5-------5----5--|-7--------7----7-|

 

G|-----------------|

D|-----------------|

A|-----------------|

E|-7-------7----7--|

 

End

A E/G# Bm (X 2)

G|-----------------|

D|-----------------|

A|-----------------|

E|-5---------------|

 

Return to my Coldplay Bass Tabs page

The Tablature is Copyright its respective owners.

Sign Up For My Newsletter
Subscribe | Unsubscribe

Site Map | Disclaimer | Privacy Policy | Media Kit | Submissions/Corrections

Website © 2000-2014 mattsmusicpage.com. All rights reserved.

Legal & DMCA: Matt's Music Page has been providing lyrics and tabs in a legal way, paying royalties each year to a few organizations. Then, all lyrics and tabs were removed from the site. Now, there's a new owner to the site, which purchased it August 26, 2014, and he is in negotiation to obtain licensing from BMI at the moment. If you have a specific DMCA request -- please do not hesitate to contact me via the contact button on top. I will do my very best to keep this site fully legal.

Get our toolbar!