Your One-Stop Source For
Music Lyrics
Bass and Guitar Tabs
and More...
Music Lyrics Bass and Guitar Tabs

 

The Tabs Are Below

Learn To Read Tab
Chords Handbook
Corrections & Additions
Get Official Tab
Coldplay tabs @ 911Tabs

COLDPLAY - TWISTED LOGIC

 

Album: X&Y

Tabbed by Lorenzo

 

On ride line: On crash line: On hats line:

X - Edge (Crashing the ride) 1 - Quick, clear crash X - Washy

x - bow ('Ping' hit) 2 - Long, heavy lower vol. crash o - half open

b - bell of ride 0 - open

 

 

0:36 3/4 triplets

 

>

R|x--x--x--x--x--x--| x8 Last bar crescendo

1 t l 2 t l 3 t l

 

C|1-----------------|------------------|------------------|------------------|

H|---x--x--x--x--x--|x--x--x--x--x--x--|x--x--x--x--x--x--|x--x--x--x--x--x--|

S|---------o--------|---------o--------|---------o--------|---------o--------|

B|o----------------o|o-----------------|------------------|o-----------------|

 

H|x--x--x--x--x--x--|x--x--x--x--x--x--|x--x--x--x--x--x--|x--x--x--x--x--x--|

S|---------o--------|---------o--------|---------o--------|---------o--------|

B|------------------|o----------------o|o-----------------|-----------------o|

 

H|x--x--x--x--x--x--|x--x--x--x--x--x--|x--x--x--x--x--x--|x--x--x--x--x--x--|

S|---------o--------|---------o--------|---------o--------|---------o--------|

B|o----------------o|o-----------------|o-----------------|o-----------------|

 

H|x--x--x--x--x--x--|x--x--x--x--x--x--|x--x--x--x--x--X--|X--X--X--o--o--0--|

S|---------o--------|---------o--------|---------o--------|---------o--------|

B|------------------|------------------|------------------|------------------|

 

1:30

 

C|1-----------------|1-----------------|1-----------2--2--|2-----------------|

R|---X--X--X--X--X--|---X--X--X--X--X--|---X--X--X--X--X--|---X--X--X--X--X--|

S|---------o--------|---------o--------|---------o--------|---------o--------|

B|o-----------------|o-----------------|o-----------------|o-----------------|

 

C|1-----------------|1-----------------|1-----------------|1-----------------|

R|---X--X--X--X--X--|---X--X--X--X--X--|---X--X--X--X--X--|---X--X--X--X--X--|

S|---------o--------|---------o--------|---------o--------|---------o--------|

B|o-----------------|o-----------------|o-----------------|o-------------oo--|

 

C|1-----------------|1-----------------|1-----------2--2--|2-----------------|

R|---X--X--X--X--X--|---X--X--X--X--X--|---X--X--X--X--X--|---X--X--X--X--X--|

S|---------o--------|---------o--------|---------o--------|---------o--------|

B|o-----------------|o-----------------|o-----------------|o-----------------|

 

________7x________

C|1-----------------|1-----------------|2-----------------|------------------|

R|---X--X--X--X--X--|---X--X--X--X--X--|x-----g--x--x--x-x|x--x--x--x--x--x--|

S|---------o--------|---------o--------|------------------|------------------|

B|o-----------------|o-----------------|------------------|------------------|

 

2:21

 

C|1-----------------|------------------|------------------|------------------|

H|---x--x--o--x--x--|x--x--x--o--x--x--|x--x--x--o--x--x--|x--x--x--o--x--x--|

S|---------o--------|---------o--------|---------o--------|---------o--------|

B|o----------------o|o----------------o|o----------------g|o----------------o|

 

H|x--x--x--o--x--x--|x--x--x--o--x--x--|x--x--x--o--x--x--|x--x--x--o--x--x--|

S|---------o--------|---------o--------|---------o--------|---------o--------|

B|o-----------------|o----------------o|o-----------------|o----------------o|

 

H|x--x--x--o--x--x--|x--x--x--o--x--x--|x--x--x--o--x--x--|x--x--x--o--x--x--|

S|---------o--------|---------o--------|---------o--------|---------o--------|

B|o-----------------|o-----------------|o-----------------|o----------------o|

 

H|x--x--x--o--x--x--|x--x--x--o--x--x--|x--x--x--o--x--x--|x--x--x--X--o--o--|

S|---------o--------|---------o--------|---------o--------|---------o--------|

B|o----------------o|o-----------------|------------------|------------------|

 

2:57

 

C|1-----------------|------------------|------------------|------------------|

H|---0--0--0--0--0--|0--0--0--0--0--0--|0--0--0--0--0--0--|0--0--0--0--0--0--|

S|---------o--------|---------o--------|---------o--------|---------o--------|

B|o-----o--------o--|o-----o--------o--|o-----o--------o--|o-----o-----------|

 

C|1-----------------|------------------|------------------|------------------|

H|---0--0--0--0--0--|0--0--0--0--0--0--|0--0--0--0--0--0--|0--0--0--0--0--0--|

S|---------o--------|---------o--------|---------o--------|---------o--------|

B|o-----o--------o--|------o--------o--|---------------o--|o-----o-----------|

 

Crescendo<<<<<<<<<<<<<<<

H|x-----x--X--X--o--|o--o--0--0--0--0--|

S|------------------|---g--o--o--o--o--|

B|------------------|---------g--g--g--|

 

3:19 Not sure about the kick in this part. It might not be present at all.

 

C|1-----------------|1-----------------|1-----------2--2--|2-----------------|

R|---X--X--X--X--X--|---X--X--X--X--X--|---X--X--X--X--X--|---X--X--X--X--X--|

S|---------o--------|---------o--------|---------o--------|---------o--------|

B|g--g--g--g--g--g--|g--g--g--g--g--g--|g--g--g--g--g--g--|g--g--g--g--g--g--|

 

C|1-----------------|1-----------------|1-----------------|------------------|

R|---X--X--X--X--X--|---X--X--X--X--X--|---X--X--X--X--X--|X--X--X--X--X--X--|

S|---------o--------|---------o--------|---------o--------|---------o--------|

B|g--g--g--g--g--g--|g--g--g--g--g--g--|g--g--g--g--g--g--|g--g--g--g--g--g--|

 

C|1-----------------|1-----------------|1-----------2--2--|2--------1--------|

R|---X--X--X--X--X--|---X--X--X--X--X--|---X--X--X--X--X--|---X--X-----X--X--|

S|---------o--------|---------o--------|---------o--------|---------o--------|

B|g--g--g--g--g--g--|g--g--g--g--g--g--|g--g--g--g--g--g--|g--g--g--g--g--g--|

 

C|1-----------------|1-----------------|1--------1--------| <<<<<<<<<<<<<<

R|---X--X--X--X--X--|---X--X--X--X--X--|---X--X-----X--X--|X--X--X--X--X--X--|

S|---------o--------|---------o--------|---------o--------|---------o--------|

B|g--g--g--g--g--g--|g--g--g--g--g--g--|g--g--g--g--g--g--|g--g--g--g--g--g--|

 

3:55

 

C|2--2--2--2--2--2--|2--2--2--2--2--2--|2--2--2--2--1--1--|1--2--2--2--2--2--|

B|o--o--o--o--o--o--|o--o--o--o--o--o--|o--o--o--o--o--o--|o--o--o--o--o--o--|

|

C|2--2--2--2--2--2--|1--1--1--1--1--1--|1-----------------|

B|o--o--o--o--o--o--|o--o--o--o--o--o--|g-----------------|

 

Pause until 4:24

 

C|xxxxxxxxxxxxxxxxxx|xxxxxxxxxxxxxxxxxx|

 

 

 

Return to my Coldplay drum tabs page

The Tablature is Copyright its respective owners.

Sign Up For My Newsletter
Subscribe | Unsubscribe

Site Map | Disclaimer | Privacy Policy | Media Kit | Submissions/Corrections

Website © 2000-2014 mattsmusicpage.com. All rights reserved.

Legal & DMCA: Matt's Music Page has been providing lyrics and tabs in a legal way, paying royalties each year to a few organizations. Then, all lyrics and tabs were removed from the site. Now, there's a new owner to the site, which purchased it August 26, 2014, and he is in negotiation to obtain licensing from BMI at the moment. If you have a specific DMCA request -- please do not hesitate to contact me via the contact button on top. I will do my very best to keep this site fully legal.

Get our toolbar!

 

1939 LYRIC THEATRE New York PHOTO
$5.83
1939 LYRIC THEATRE New York PHOTO picture


Star Spangled Banner or Marines Hymn lyrics signed by WWII Charles W. Lindberg
$10.0
Star Spangled Banner or Marines Hymn lyrics signed by WWII Charles W. Lindberg picture


OLD LARGE HISTORIC PHOTO OF THE LYRIC THEATRE, SYDNEY c1930s, WAR BONDS BOOTH
$7.42
OLD LARGE HISTORIC PHOTO OF THE LYRIC THEATRE, SYDNEY c1930s, WAR BONDS BOOTH picture


SONG OF REVOLUTION CARD SET WITH 13 MOST FAVORED COMMUNIST SONGS LYRICS + NOTES
$24.99
SONG OF REVOLUTION CARD SET WITH 13 MOST FAVORED COMMUNIST SONGS LYRICS + NOTES picture


OLD LARGE HISTORIC PHOTO OF THE LYRIC THEATRE, SYDNEY c1930s, WAR LOANS BOOTH
$7.42
OLD LARGE HISTORIC PHOTO OF THE LYRIC THEATRE, SYDNEY c1930s, WAR LOANS BOOTH picture