Your One-Stop Source For
Music Lyrics
Bass and Guitar Tabs
and More...
Music Lyrics Bass and Guitar Tabs

 

The Coldplay Bass Tabs Are Below

Learn To Read Tab
Chords Handbook
Corrections & Additions
Get Official Tab
Coldplay tabs @ 911Tabs

CHARLIE BROWN - Coldplay

-------------------------------------------------------------------------------

 

Tabbed By : Alex

e-mail:

 

Tuning: Drop D.

 

Also, you should note that this is tabbed from a concert, so there may be

errors and whatnot.

 

Guitar plays til ~0:25:

G|----------------------------------------88888888-------------------------|

D|-55555555------8888888888888888-5555555-----------------1010101010101010-|

A|---------666666---------------------------------66666666-----------------|

D|-------------------------------------------------------------------------|2x

 

Chorus 1:17

G|----------------------------------------88888888-------------------------|

D|-55555555------8888888888888888-5555555-----------------1010101010101010-|

A|---------666666---------------------------------66666666-----------------|

D|-------------------------------------------------------------------------|

01:49

Prechorus

G|----------------------------------------------------------------|

D|------------------------------------------------1-1-1-1-1-1-1-1-|

A|----------------------------------------------------------------|

D|-1-1-1-1-1-1-1-1-3-3-3-3-3-3-3-3-1-1-1-1-1-1-1-1----------------|

 

Chorus

G|----------------------------------------88888888-------------------------|

D|-55555555------8888888888888888-5555555-----------------1010101010101010-|

A|---------666666---------------------------------66666666-----------------|

D|-------------------------------------------------------------------------|2x

 

Bridge 02:29

G|------------------------------------------|

D|------------------------------------------|

A|--88888888--88888888--66666666------------|

D|--------------------------------888888888-|2x

 

G|------------------------------------|

D|------------------------------------|

A|-888888888888-555555555-6666666666~-|

D|------------------------------------|

 

2:58

Cool part

G|----------------------------------------------|

D|----------------------------------------------|

A|----6~--1~-------6~----3~----6~--1~----6~--3~-|

D|-5~-----------5~-----------5~-------5~--------|

 

Chorus

G|----------------------------------------88888888-------------------------|

D|-55555555------8888888888888888-5555555-----------------1010101010101010-|

A|---------666666---------------------------------66666666-----------------|

D|-------------------------------------------------------------------------|2x

Outro

G|------------------------------|

D|-55555555---------------------|

A|----------6666-88888888888-6~-|

D|------------------------------|

 

 

| / slide up

| \ slide down

| h hammer-on

| p pull-off

| ~ vibrato

| + harmonic

| x Mute note

===============================================================================

Return to my Coldplay Bass Tabs page

The Coldplay Tablature is Copyright its respective owners.

Sign Up For My Newsletter
Subscribe | Unsubscribe

Site Map | Disclaimer | Privacy Policy | Media Kit | Submissions/Corrections

Website © 2000-2014 mattsmusicpage.com. All rights reserved.

Legal & DMCA: Matt's Music Page has been providing lyrics and tabs in a legal way, paying royalties each year to a few organizations. Then, all lyrics and tabs were removed from the site. Now, there's a new owner to the site, which purchased it August 26, 2014, and he is in negotiation to obtain licensing from BMI at the moment. If you have a specific DMCA request -- please do not hesitate to contact me via the contact button on top. I will do my very best to keep this site fully legal.

Get our toolbar!

 

Starbucks You Are Here Coffee Mug/Cup KENTUCKY - Horses, Banjo, Blue, White
$19.99
Starbucks You Are Here Coffee Mug/Cup KENTUCKY - Horses, Banjo, Blue, White picture


KNOWLES ROCKWELL HERITAGE "THE BANJO PLAYER" FIRST EDITION 1989 PLATE COA
$5.99
KNOWLES ROCKWELL HERITAGE


Vintage Postcard 1981 Disney World Banjo Kings Main Street USA 1981 Postmark
$4.99
 Vintage Postcard 1981 Disney World Banjo Kings Main Street USA 1981 Postmark picture


Banjo Barometer With Thermometer Hygrometer 490mm
$84.76
Banjo Barometer With Thermometer Hygrometer 490mm picture


ANTIQUE JAPANESE NIPPON FIGURINE SET OF 3 WOMEN GEISHA PLAYING DRUM BANJO FAN
$24.0
ANTIQUE JAPANESE NIPPON FIGURINE SET OF 3 WOMEN GEISHA PLAYING DRUM BANJO FAN picture