Your One-Stop Source For
Music Lyrics
Bass and Guitar Tabs
and More...
Music Lyrics Bass and Guitar Tabs

 

The Tabs Are Below

Learn To Read Tab
Chords Handbook
Corrections & Additions
Get Official Tab
Coldplay tabs @ 911Tabs

Song:The Scientist

 

Artist:Coldplay

 

Album:Rush of blood to the head

 

Tabber:T4-TURBO

 

Riff 1:

g:-----------------------------------------------------------------|

d:0-0-0-0-0-0-0-0--------------------------------------------------|

a:----------------1-1-1-1-1-1-1-1----------------------------------|

e:--------------------------------1-1-1-1-1-1-1-1-1-1-1-1-1-1-1-1-1|

 

Riff 2:

g:-----------------------------------------------------------------------------------------|

d:3-3-3-3-3-3-3----------------------------------------------------------------------------|

a:--------------1-1-1-1-1-1-1-1-1----------------------------------(3-3-3-3-3-3-3-3-3------|

e:--------------------------------1-1-1-1-1-1-1-1-1-1-1-1-1-1-1-1-1------------------------|

 

End:

g:--------------|

d:0-------------|

a:-------1------|

e:-------------1|

 

Return to my Coldplay bass tabs page

The Tablature is Copyright its respective owners.

Sign Up For My Newsletter
Subscribe | Unsubscribe

Site Map | Disclaimer | Privacy Policy | Media Kit | Submissions/Corrections

Website © 2000-2014 mattsmusicpage.com. All rights reserved.

Legal & DMCA: Matt's Music Page has been providing lyrics and tabs in a legal way, paying royalties each year to a few organizations. Then, all lyrics and tabs were removed from the site. Now, there's a new owner to the site, which purchased it August 26, 2014, and he is in negotiation to obtain licensing from BMI at the moment. If you have a specific DMCA request -- please do not hesitate to contact me via the contact button on top. I will do my very best to keep this site fully legal.

Get our toolbar!