Your One-Stop Source For
Music Lyrics
Bass and Guitar Tabs
and More...
Music Lyrics Bass and Guitar Tabs

 

The Tabs Are Below

Learn To Read Tab
Chords Handbook
Corrections & Additions
Get Official Tab
Coldplay tabs @ 911Tabs

Coldplay A Rush Of Blood To The Head

Tabbed by - Chate

 

Don’t play any of the verses

 

Middle “I’m gonna buy a gun...rush of Blood to the Head”

G|--------------|--------------|--------------|--------------|

D|--------------|--------------|-2—-----2-—2--|--------------| X 2

A|-0------0--0--|-3------3—-3--|--------------|-0------0—-0--|

E|--------------|--------------|--------------|--------------|

 

G|--------------|

D|--------------|

A|-0------0--0--|

E|--------------|

 

Chorus

G|-----------------|-----------------|-----------------|-----------------|

D|-----------------|-----------------|-----------------|-----------------|

A|-----------------|-----------------|-5-5-5-5-5-5-5-5-|-5-5-5-5-5-5-5-5-|

E|-1-1-1-1-1-1-1-1-|-1-1-1-1-1-1-1-1-|-----------------|-----------------|

 

G|-----------------|-----------------|-----------------|-----------------|

D|-----------------|-----------------|-----------------|-----------------| X 2

A|-----------------|-----------------|-5-5-5-5-5-5-5-5-|-----------------|

E|-1-1-1-1-1-1-1-1-|-1-1-1-1-1-1-1-1-|-----------------|-6-6-6-6-6-6-6-6-|

 

After Chorus (Before Verse)

G|--------------|--------------|--------------|--------------|

D|--------------|--------------|-2—-----2-—2--|--------------| X 2

A|-0------0--0--|-3------3—-3--|--------------|-0------0—-0--|

E|--------------|--------------|--------------|--------------|

 

Outro “Meet me by...”

G|--------------|--------------|--------------|--------------|

D|--------------|--------------|-2—-----2-—2--|--------------| X 4

A|-0------0--0--|-3------3—-3--|--------------|-0------0—-0--|

E|--------------|--------------|--------------|--------------|

 

G|--------------|

D|--------------|

A|-0-(hold)-----|

E|--------------|

 

 

Return to my Coldplay bass tabs page

The Tablature is Copyright its respective owners.

Sign Up For My Newsletter
Subscribe | Unsubscribe

Site Map | Disclaimer | Privacy Policy | Media Kit | Submissions/Corrections

Website © 2000-2014 mattsmusicpage.com. All rights reserved.

Legal & DMCA: Matt's Music Page has been providing lyrics and tabs in a legal way, paying royalties each year to a few organizations. Then, all lyrics and tabs were removed from the site. Now, there's a new owner to the site, which purchased it August 26, 2014, and he is in negotiation to obtain licensing from BMI at the moment. If you have a specific DMCA request -- please do not hesitate to contact me via the contact button on top. I will do my very best to keep this site fully legal.

Get our toolbar!