Your One-Stop Source For
Music Lyrics
Bass and Guitar Tabs
and More...
Music Lyrics Bass and Guitar Tabs

 

The Tabs Are Below

Learn To Read Tab
Chords Handbook
Corrections & Additions
Get Official Tab
Coldplay tabs @ 911Tabs

Coldplay – Politik

Tabbed by - Chate

 

 

Intro + Chorus

G|-----------------|-----------------|-----------------|-----------------|

D|-----------------|-----------------|-3-3-3-3-3-3-3-3-|-3-3-3-3-3-3-3-3-|

A|-3-3-3-3-3-3-3-3-|-3-3-3-3-3-3-3-3-|-----------------|-----------------|

E|-----------------|-----------------|-----------------|-----------------|

 

No bass in verse 1

 

Verse 2 (comes in after 4 bars)

G|-----------------|-----------------|-----------------|-----------------|

D|--/10------------|-----------------|-3---------------|----6---6--5--3--|

A|-3---------------|-----------------|-----------------|-----------------|

E|-----------------|-----------------|-----------------|-----------------|

 

G|-5---------------|-----------------|-----------------|-----------------|

D|-----------------|-----------------|-3---------------|----6---6--5--3--| X 2

A|-----------------|-----------------|-----------------|-----------------|

E|-----------------|-----------------|-----------------|-----------------|

 

Outro (After Chorus 2)

G|--------|--------|

D|--------|--------|

A|-3------|--------|

E|--------|--------|

 

G|--------|--------|--------|--------|--------|--------|--------|--------|

D|-3------|--------|--------|--------|-6------|--------|--------|--------| X 3

A|--------|--------|-4------|--------|--------|--------|-6------|--------|

E|--------|--------|--------|--------|--------|--------|--------|--------|

 

G|-----------------|-----------------|-----------------|-----------------|

D|-3-3-3-3-3-3-3-3-|-3-3-3-3-3-3-3-3-|-----------------|-----------------|

A|-----------------|-----------------|-4-4-4-4-4-4-4-4-|-4-4-4-4-4-4-4-4-|

E|-----------------|-----------------|-----------------|-----------------|

 

G|-----------------|-----------------|-----------------|-----------------|

D|-----------------|-----------------|-----------------|-----------------|

A|-----------------|-----------------|-6-6-6-6-6-6-6-6-|-6-6-6-6-6-6-6-6-|

E|-4-4-4-4-4-4-4-4-|-4-4-4-4-4-4-4-4-|-----------------|-----------------|

 

G|-----------------|-----------------|-----------------|-----------------|

D|-----------------|-----------------|-----------------|-----------------|

A|-----------------|-----------------|-4-4-4-4-4-4-4-4-|-4-4-4-4-4-4-4-4-|

E|-1-1-1-1-1-1-1-1-|-1-1-1-1-1-1-1-1-|-----------------|-----------------|

 

G|-----------------|-----------------|-----------------|-----------------|

D|-----------------|-----------------|-----------------|-----------------|

A|-----------------|-----------------|-6-6-6-6-6-6-6-6-|-6-6-6-6-6-6-6-6-|

E|-4-4-4-4-4-4-4-4-|-4-4-4-4-4-4-4-4-|-----------------|-----------------|

 

G|-----------------|

D|-3-(hold)--------|

A|-----------------|

E|-----------------|

 

 

Return to my Coldplay bass tabs page

The Tablature is Copyright its respective owners.

Sign Up For My Newsletter
Subscribe | Unsubscribe

Site Map | Disclaimer | Privacy Policy | Media Kit | Submissions/Corrections

Website © 2000-2014 mattsmusicpage.com. All rights reserved.

Legal & DMCA: Matt's Music Page has been providing lyrics and tabs in a legal way, paying royalties each year to a few organizations. Then, all lyrics and tabs were removed from the site. Now, there's a new owner to the site, which purchased it August 26, 2014, and he is in negotiation to obtain licensing from BMI at the moment. If you have a specific DMCA request -- please do not hesitate to contact me via the contact button on top. I will do my very best to keep this site fully legal.

Get our toolbar!