Your One-Stop Source For
Music Lyrics
Bass and Guitar Tabs
and More...
>Music Lyrics Bass and Guitar Tabs

 

The Tabs Are Below

Learn To Read Tab
Chords Handbook
Corrections & Additions
Get Official Tab
Coldplay tabs @ 911Tabs

Coldplay – In My Place

Tabbed by - Chate

 

 

Intro + Verse + Bridge

A A/G# C#m E A F#m C#m E

G|-----------------|-----------------|-----------------|-----------------|

D|-----------------|-----------------|-----------------|-----------------|

A|-----—-----------|-4--4--4-/7-7--7-|-----------------|-4--4--4-/7-7--7-|

E|-5--5--5--4-4--4-|-----------------|-5--5--5--2-2--2-|-----------------|

 

Chorus

D A E/G# D A E/G#

G|-----------------|-----------------|-----------------|-----------------|

D|-----------------|-7---9--7--6-----|-----------------|-7---9--7--6-----|

A|-5-------5---5-5-|--------------7--|-5-------5---5-5-|--------------7--|

E|-----------------|-----------------|-----------------|-----------------|

 

D A E/G# D E

G|-----------------|-----------------|-----------------|-----------------|

D|-----------------|-7---9--7--6-----|-----------------|-----------------|

A|-5-------5---5-5-|--------------7--|-5-------5---5-5-|-7---------------|

E|-----------------|-----------------|-----------------|-----------------|

 

 

Guitar Solo + Outro

(Quiet bass or violins)

A A/G# C#m E A F#m C#m E

G|-----------------|-----------------|-----------------|-----------------|

D|-7------6--------|-----------------|-7------4--------|-----------------|

A|-----------------|-4-------7-------|-----------------|-4-------7-------|

E|-----------------|-----------------|-----------------|-----------------|

 

End note

A

G|-----------------|

D|-----------------|

A|-0---------------|

E|-----------------|

 

 

 

Return to my Coldplay bass tabs page

The Tablature is Copyright its respective owners.

Sign Up For My Newsletter
Subscribe | Unsubscribe

Site Map | Disclaimer | Privacy Policy | Media Kit | Submissions/Corrections

Website © 2000-2014 mattsmusicpage.com. All rights reserved.

Legal & DMCA: Matt's Music Page has been providing lyrics and tabs in a legal way, paying royalties each year to a few organizations. Then, all lyrics and tabs were removed from the site. Now, there's a new owner to the site, which purchased it August 26, 2014, and he is in negotiation to obtain licensing from BMI at the moment. If you have a specific DMCA request -- please do not hesitate to contact me via the contact button on top. I will do my very best to keep this site fully legal.

Get our toolbar!

 

Antique Lux Heart Beat Waterbury / DeLuxe Wind Up Banjo Wall Clock
$48.89
Antique Lux Heart Beat Waterbury / DeLuxe Wind Up Banjo Wall Clock picture


Frog Banjo & Bass Fiddle Player Salt & Pepper Shakers - Japan
$4.99
Frog Banjo & Bass Fiddle Player Salt & Pepper Shakers - Japan picture


VINTAGE NORCREST #E-402 PLANTER-GIRL WITH BANJO
$22.99
VINTAGE NORCREST #E-402 PLANTER-GIRL WITH BANJO picture


THE BANJO PLAYER BY NORMAN ROCKWELL COLLECTORS PLATE
$10.0
THE BANJO PLAYER BY NORMAN ROCKWELL COLLECTORS PLATE picture


Large Cast Iron 'Banjo' Style Low Pressure Burner Set - heavy Still Burner?
$89.99
Large Cast Iron 'Banjo' Style Low Pressure Burner Set - heavy Still Burner? picture