Your One-Stop Source For
Music Lyrics
Bass and Guitar Tabs
and More...
>Music Lyrics Bass and Guitar Tabs

 

The Tabs Are Below

Learn To Read Tab
Chords Handbook
Corrections & Additions
Get Official Tab
Coldplay tabs @ 911Tabs

Coldplay – God Put A Smile Upon Your Face

Tabbed by - Chate

 

No bass in the 1st verse

 

Pre Verse (during the guitar slides before verse starts)

G|--------------|--------------|--------------|--------------|

D|-11----9-11-9-|-11----9-11-9-|-11----9-11-9-|-11----9-11-9-| X 2

A|--------------|--------------|--------------|--------------|

E|---9-9--------|---9-9--------|---9-9--------|---9-9--------|

 

Verse (except 1)

G|--------------|--------------|--------------|--------------|

D|-11------11---|-11------11---|-11------11---|-11----9-11-9-| X 4

A|-------11--11-|-------11--11-|-------11--11-|--------------|

E|---9-9--------|---9-9--------|---9-9--------|---9-9--------|

 

Chorus

G|--------------|--------------|--------------|--------------|

D|--------------|--------------|--------------|--------------|

A|-0--0---0-0---|-0--0--0-0--0-|-7--7--7-7--7-|-9--9--9-9--9-|

E|--------------|--------------|--------------|--------------|

 

G|--------------|--------------|--------------|--------------|

D|-7--7---7-7---|-7--7--7-7--7-|--------------|--------------|

A|--------------|--------------|-7--7--7-7--7-|-9--9--9-9--9-|

E|--------------|--------------|--------------|--------------|

 

G|--------------|--------------|--------------|--------------|

D|--------------|--------------|--------------|--------------|

A|-0--0---0-0---|-0--0--0-0--0-|-7--7--7-7--7-|-9--9--9-9--9-|

E|--------------|--------------|--------------|--------------|

 

G|--------------|--------------|--------------|---11-9-------|

D|-7--7---7-7---|-7--7--7-7--7-|--------------|---------11-9-|

A|--------------|--------------|-7--7--7-7--7-|-9------------|

E|--------------|--------------|--------------|--------------|

 

After Chorus 2 (after this do pre verse X2, then Outro)

G|--------------|--------------|--------------|--------------|

D|--------------|--------------|--------------|--------------| X 2

A|-4------------|-7------------|-6------------|-5------------|

E|--------------|--------------|--------------|--------------|

 

Outro

G|--------------|--------------|--------------|--------------|

D|--------------|--------------|--------------|--------------| X 3

A|-0--0---0-0---|-0--0--0-0--0-|-7--7--7-7--7-|-9--9--9-9--9-|

E|--------------|--------------|--------------|--------------|

 

G|--------------|--------------|--------------|---11-9-------|

D|--------------|--------------|--------------|---------11-9-|

A|-0--0---0-0---|-0--0--0-0--0-|-7--7--7-7--7-|-9------------|

E|--------------|--------------|--------------|--------------|

 

G|--------------|

D|--------------|

A|--------------|

E|-9-(hold)-----|

 

 

 

Return to my Coldplay bass tabs page

The Tablature is Copyright its respective owners.

Sign Up For My Newsletter
Subscribe | Unsubscribe

Site Map | Disclaimer | Privacy Policy | Media Kit | Submissions/Corrections

Website © 2000-2014 mattsmusicpage.com. All rights reserved.

Legal & DMCA: Matt's Music Page has been providing lyrics and tabs in a legal way, paying royalties each year to a few organizations. Then, all lyrics and tabs were removed from the site. Now, there's a new owner to the site, which purchased it August 26, 2014, and he is in negotiation to obtain licensing from BMI at the moment. If you have a specific DMCA request -- please do not hesitate to contact me via the contact button on top. I will do my very best to keep this site fully legal.

Get our toolbar!

 

HOHNER HARPONETTE REISSUE 1930'S HARMONICA HARP BRAND NEW COLLECTORS ITEM
$117.92
HOHNER HARPONETTE REISSUE 1930'S HARMONICA HARP BRAND NEW COLLECTORS ITEM picture


1983 Musician James Cotton with Harmonica Original News Service Photo
$14.99
1983 Musician James Cotton with Harmonica Original News Service Photo picture


Musician James Cotton with Harmonica Original News Service Photo
$14.99
Musician James Cotton with Harmonica Original News Service Photo picture


Christmas Ornament Harmonica Glass Missing Metal Top 3.5"
$14.99
Christmas Ornament Harmonica Glass Missing Metal Top 3.5


BRAND NEW LEE OSKAR MELODY MAKER DIATONIC HARP G HARMONICA 10 HOLE 20 REED 1910
$39.39
BRAND NEW LEE OSKAR MELODY MAKER DIATONIC HARP G HARMONICA 10 HOLE 20 REED 1910 picture