Your One-Stop Source For
Music Lyrics
Bass and Guitar Tabs
and More...
>Music Lyrics Bass and Guitar Tabs

 

The Tabs Are Below

Learn To Read Tab
Chords Handbook
Corrections & Additions
Get Official Tab
Coldplay tabs @ 911Tabs

Coldplay Daylight

Tabbed by - Chate

 

 

Intro + pre verse

G|--------------|--------------|--------------|--------------|

D|--------------|--------------|--------------|--------------| X 2

A|-7--7---7--7--|-10-10--10-10-|-9--9---9--9--|-9--9---9--9--|

E|--------------|--------------|--------------|--------------|

 

Verse 1 (comes in after 16 bars)

G|--------9-9---|--------9-9---|--------9-9---|--------9-9---|

D|------------9-|------------9-|------------9-|------------9-| X 4

A|-7--7---------|-10-10--------|-9--9---------|-9--9---------|

E|--------------|--------------|--------------|--------------|

 

Chorus

G|-------|-------|-------|-------|-------|-------|-------|-------|

D|-------|-------|-------|-------|-4-4-44|-4-4-44|-7-7-77|-7-7-77|

A|-0-0-00|-0-0-00|-5-5-55|-5-5-55|-------|-------|-------|-------|

E|-------|-------|-------|-------|-------|-------|-------|-------|

 

G|-------|-------|-------|-------|-------|-------|-------|-------|

D|-------|-------|-------|-------|-4-4-44|-4-4-44|-------|-------|

A|-0-0-00|-0-0-00|-5-5-55|-5-5-55|-------|-------|-0-0-00|-0-0-00|

E|-------|-------|-------|-------|-------|-------|-------|-------|

 

G|-------|-------|-------|-------|---------------|

D|/7-7-77|-7-7-77|-------|-------|-4—(hold)------|

A|-------|-------|-5-5-55|-5-5-55|---------------|

E|-------|-------|-------|-------|---------------|

 

 

Verse 2 (comes in after 8 bars)

G|--------9-9---|--------9-9---|--------9-9---|--------9-9---|

D|------------9-|------------9-|------------9-|------------9-| X 2

A|-7--7---------|-10-10--------|-9--9---------|-9--9---------|

E|--------------|--------------|--------------|--------------|

 

G|--------9-9---|--------9-9---|-------11-11--|-------11-11--|

D|------------9-|------------9-|------------11|------------11| X 4

A|-7--7---------|-10-10--------|-9--9---------|-9--9---------|

E|--------------|--------------|--------------|--------------|

 

Outro

G|-9------------|--------------|-11-----------|--------------|

D|---11-9-11-9--|--------------|---11-9-11-9--|--------------| TO

A|-------------7|-7---9—-9--9--|-------------7|-7-—-9—-9--9--| FADE

E|--------------|--------------|--------------|--------------|

 

 

Return to my Coldplay bass tabs page

The Tablature is Copyright its respective owners.

Sign Up For My Newsletter
Subscribe | Unsubscribe

Site Map | Disclaimer | Privacy Policy | Media Kit | Submissions/Corrections

Website © 2000-2014 mattsmusicpage.com. All rights reserved.

Legal & DMCA: Matt's Music Page has been providing lyrics and tabs in a legal way, paying royalties each year to a few organizations. Then, all lyrics and tabs were removed from the site. Now, there's a new owner to the site, which purchased it August 26, 2014, and he is in negotiation to obtain licensing from BMI at the moment. If you have a specific DMCA request -- please do not hesitate to contact me via the contact button on top. I will do my very best to keep this site fully legal.

Get our toolbar!

 

Vintage, Original, 1930 - Hawaiian Guitar Advertisement
$6.0
Vintage, Original, 1930 - Hawaiian Guitar Advertisement  picture


1958 Gibson Modernistic Series 12x20 Patent Artwork Art Gifts For Guitar Players
$17.0
1958 Gibson Modernistic Series 12x20 Patent Artwork Art Gifts For Guitar Players picture


Hard Rock Cafe Membership – 11th Year Guitar & Logo 2-pin Set 58526 & 58527
$14.99
Hard Rock Cafe Membership – 11th Year Guitar & Logo 2-pin Set 58526 & 58527  picture


Handmade Lovely Clown With Guitar Paper Mache Vintage Colorful Figurine 1970's
$19.99
Handmade Lovely Clown With Guitar Paper Mache Vintage Colorful Figurine 1970's picture


1954 Gibson J185 guitar photo vintage print ad
$9.99
1954 Gibson J185 guitar photo vintage print ad picture