Your One-Stop Source For
Music Lyrics
Bass and Guitar Tabs
and More...
>Music Lyrics Bass and Guitar Tabs

 

The Tabs Are Below

Learn To Read Tab
Chords Handbook
Corrections & Additions
Get Official Tab
Calling tabs @ 911Tabs

My own version of this song, not perfect, but good enough to play along with, listen to

the cd for strumming, a couple of quick changes between G and C chords, hope this is

helpful.

 

Capo on 1st

 

 

--------------------------------------------

--1------------1---------1-----------1------

-----2----------------------2---------------

----------3---------3------------3-------3--

----------3---------3------------3-------3--

--------------------------------------------

 

 

-----3-------------------3----------------

-----------1-------------------1------------

-----------------------------------------

--------------2--------------------2-------

--2---------------3----2--------------3------

-----3-------------------3-----------------

 

Play intro twice, same chords for first and second verse. Then play..

 

(Tease me....)

 

--------------------------------------------

--1--------------1--------------------------

--------------------------------------------

----------3----------2----------------------

----------3--------------3------------------

--------------------------------------------

 

(By.. hand)

----3--------------------------------------

-------------1-----------------------------

------------------------------------------

-----------------2-------------------------

--2-----------------3---------------------

----3--------------------------------------

 

Then strum once Am and back to C for quick change,

and back to chords above.

 

The last part of the song uses the same chords, the progression changes a little bit, but

you'll be safe if you stick to this. The electric guitar part between chorus, if you are

plying accoustic sounds pretty good if you use C, Am,G, listen to CD for strumming, and

that's all, this is the easiest way to play this song, hope you'll enjoy it. Comments to

cmurca@aol.com

Return to my Calling tabs page

The Tablature is Copyright its respective owners.

Sign Up For My Newsletter
Subscribe | Unsubscribe

Site Map | Disclaimer | Privacy Policy | Media Kit | Submissions/Corrections

Website © 2000-2014 mattsmusicpage.com. All rights reserved.

Legal & DMCA: Matt's Music Page has been providing lyrics and tabs in a legal way, paying royalties each year to a few organizations. Then, all lyrics and tabs were removed from the site. Now, there's a new owner to the site, which purchased it August 26, 2014, and he is in negotiation to obtain licensing from BMI at the moment. If you have a specific DMCA request -- please do not hesitate to contact me via the contact button on top. I will do my very best to keep this site fully legal.

Get our toolbar!

 

Day 9 Nine Drummers Drumming Twelve Days of Christmas Glass Tumbler
$16.95
Day 9 Nine Drummers Drumming Twelve Days of Christmas Glass Tumbler  picture


PEKING - S. YAMAMOTO, DRUM TOWER. C.1930
$3.91
PEKING - S. YAMAMOTO, DRUM TOWER. C.1930 picture


60s Vogel Negative, sexy nude pin-up girl Dixie Hardaker on Indian drum, t977685
$10.0
60s Vogel Negative, sexy nude pin-up girl Dixie Hardaker on Indian drum, t977685 picture


Retro Mid-Century Modern Diamond Shape Glass Ceiling Cover Drum Dome Flush Mount
$10.99
Retro Mid-Century Modern Diamond Shape Glass Ceiling Cover Drum Dome Flush Mount picture


Handmade Ceremonial Rawhide Drum 12" Tall Southwest w/ Beater - Double Sided
$39.99
Handmade Ceremonial Rawhide Drum 12