Your One-Stop Source For
Music Lyrics
Bass and Guitar Tabs
and More...
Music Lyrics Bass and Guitar Tabs

 

The Tabs Are Below

Learn To Read Tab
Chords Handbook
Corrections & Additions
Get Official Tab
Calling tabs @ 911Tabs

Artist: The Calling

Song: Wherever You Will Go

Transcribed by: DJ Free

 

 

verses and the chorus

G--------------------------------------------------------------

D--------------------------------------------------------------

A--5--5--5--5---4--4--4--4-----2--2---2---2--------------------

E----------------------------------------------3--3---3--3-----

 

G--------------------------------------------------------------

D--------------------------------------------------------------

A--5555---4444-----2222----------------------------------------

E---------------------------------------------3333-------------

 

play this when he says "Runaway with my heart......"

G--------------------------------------------------------------

D--------------------------------------------------------------

A--22------------------------22--------------------------------

E-------33----55-----22----------------------------------------

Just play with differnt various licks. they will all sound good

 

if its not right drop me an email at drfantastik01@aol.com and I will fix ASAP.

 

 

Return to my Calling bass tabs page

The Tablature is Copyright its respective owners.

Sign Up For My Newsletter
Subscribe | Unsubscribe

Site Map | Disclaimer | Privacy Policy | Media Kit | Submissions/Corrections

Website © 2000-2014 mattsmusicpage.com. All rights reserved.

Legal & DMCA: Matt's Music Page has been providing lyrics and tabs in a legal way, paying royalties each year to a few organizations. Then, all lyrics and tabs were removed from the site. Now, there's a new owner to the site, which purchased it August 26, 2014, and he is in negotiation to obtain licensing from BMI at the moment. If you have a specific DMCA request -- please do not hesitate to contact me via the contact button on top. I will do my very best to keep this site fully legal.

Get our toolbar!