Your One-Stop Source For
Music Lyrics
Bass and Guitar Tabs
and More...
Music Lyrics Bass and Guitar Tabs

 

The Tabs Are Below

Learn To Read Tab
Chords Handbook
Corrections & Additions
Get Official Tab
Bush tabs @ 911Tabs

Warm Machine

Bush

 

 

From the just released album: The Science of Things

 

Tabbed By: Melanie Alexander

 

This song is real easy to play so there should be no trouble with it.

 

/- Tremolo

b- bend

s- slide

h- hammer on

p-pull off

 

Intro-

 

e)----1-1-1-p-(1)—0-0-0-0-0—5-5-5-5-h-3-3-3-3-------------------- keep repeating

B)---------------------------------------------------------------

 

-or-

e)-------------------0-0-0-0-0-----------------------------------

B)----6-6-6-p-(6)-5-5-5-5-5—10-10-10-10-h-8-8-8-8-8--------------

 

Chorus-

 

A5 F G5

-repeat

e)----------------------------------------------------------------

B)----------------------------------------------------------------

G)---7-7-x-x-x-----3-3-3-3----5-5-5-5-5-5-5-5-5-------------------

D)---7-7-x-x-x-----3-3-3-3----5-5-5-5-5-5-5-5-5-------------------

A)---5-5-x-x-x-----1-1-1-1----3-3-3-3-3-3-3-3-3-------------------

 

play intro

 

Bridge-

 

C5 D5 C5

-repeat that

 

 

Play intro a couple times

 

Solo-

e)-------------------------------------------------b17-b19--------

B)----------------------------b20---------------------------------

G)-----/21----/19----/21----------/21-s-/19-----------------------

 

 

C5 A5 G5 F

e)----------------------------------------------------------------

B)----------------------------------------------------------------

G)----5-5-x-x-x---------------------------------------------------

D)----5-5-x-x-x------7-7-7-7-7---5-5-5----3-3-3-3-----------------

A)----3-3-x-x-x------7-7-7-7-7---5-5-5----3-3-3-3-----------------

E)----------------------5-5-5-5-5---3-3-3----1-1-1-1--------------

 

chorus

 

outro-

 

A5

 

that’s about it.

Any questions, comments, or corrections e-mail me at:

HSUBGAVIN@aol.com

 

 

Return to my to my Bush tabs page

The Tablature is Copyright its respective owners.

Sign Up For My Newsletter
Subscribe | Unsubscribe

Site Map | Disclaimer | Privacy Policy | Media Kit | Submissions/Corrections

Website © 2000-2014 mattsmusicpage.com. All rights reserved.

Legal & DMCA: Matt's Music Page has been providing lyrics and tabs in a legal way, paying royalties each year to a few organizations. Then, all lyrics and tabs were removed from the site. Now, there's a new owner to the site, which purchased it August 26, 2014, and he is in negotiation to obtain licensing from BMI at the moment. If you have a specific DMCA request -- please do not hesitate to contact me via the contact button on top. I will do my very best to keep this site fully legal.

Get our toolbar!

 

CA PHOTO bde-128 Rolling Stones Music Group
$17.0
CA PHOTO bde-128 Rolling Stones Music Group picture


Rolling stones postcard
$0.75
Rolling stones postcard picture


ROCK N ROLL COMICS GUNS N ROSES METALLICA MOTLEY CRUE THE ROLLING STONES 1 2 4 6
$9.99
ROCK N ROLL COMICS GUNS N ROSES METALLICA MOTLEY CRUE THE ROLLING STONES 1 2 4 6 picture


A & B.C. GUM 1965 SCARCE CARD # 35 ROLLING STONES--ROLLING STONES " A NICE CARD
$7.8
A & B.C. GUM 1965 SCARCE CARD  # 35 ROLLING STONES--ROLLING STONES


Rolling Stones Zippo Windproof Lighter
$18.0
Rolling Stones Zippo Windproof Lighter picture