Your One-Stop Source For
Music Lyrics
Bass and Guitar Tabs
and More...
Music Lyrics Bass and Guitar Tabs

 

The Tabs Are Below

Learn To Read Tab
Chords Handbook
Corrections & Additions
Get Official Tab
Bush tabs @ 911Tabs

Bush

Synapse

 

 

By: David Harrison (blaze@interlog.com)

Song: "Synapse" by "Bush"

Album: "Razorblade Suitcase"(1996)

 

I'm pretty sure this is right but if you have any problems

with it feel free to complain.

 

 

E|--------------------------------------------------------|

B|--------------------------------------------------------|

G|---------------2-2-2--2-2-2---------------2-2-2--2-2-2--|

D|--3-3-3-3-3-3--2-2-2--2-2-2--3-3-3-3-3-3--2-2-2--2-2-2--|

A|--3-3-3-3-3-3--0-0-0--0-0-0--3-3-3-3-3-3--0-0-0--0-0-0--|

E|--1-1-1-1-1-1----------------1-1-1-1-1-1----------------|

 

E|--------------------------------------------------------|

B|--------------------------------------------------------|

G|---------------2-2-2--2-2-2---------------2-------------|

D|--3-3-3-3-3-3--2-2-2--2-2-2--3-3-3-3-3-3--2-------------|

A|--3-3-3-3-3-3--0-0-0--0-0-0--3-3-3-3-3-3--0-------------|

E|--1-1-1-1-1-1----------------1-1-1-1-1-1----------------|

| |

E|--------------------------------------------------------|

B|---------------------------------4-4-4--4-5-------------|

G|------2-2-4-2-------------------5-5-5-5-----------------|

D|---------------3-2--------------------------------------|

A|--------------------------------------------------------|

E|--------------------------------------------------------|

 

E|--------------------------------------------------------|

B|--------------------------------------------------------|

G|---------------2--------------------------2-------------|

D|--3-3-3-3-3-3--2-------------3-3-3-3-3-3--2-------------|

A|--3-3-3-3-3-3--0-------------3-3-3-3-3-3--0-------------|

E|--1-1-1-1-1-1----------------1-1-1-1-1-1----------------|

| |

E|--------------------------------------------------------|

B|--------------------------------------------------------|

G|---------------------------------2-2-4-2----------------|

D|------------------------------------------3-2-----------|

A|--------------------------------------------------------|

E|--------------------------------------------------------|

 

E|--------------------------------------------------------|

B|--------------------------------------------------------|

G|---------------2--------------------------2-2-2--2-2-2--|

D|--3-3-3-3-3-3--2-------------3-3-3-3-3-3--2-2-2--2-2-2--|

A|--3-3-3-3-3-3--0-------------3-3-3-3-3-3--0-0-0--0-0-0--|

E|--1-1-1-1-1-1----------------1-1-1-1-1-1----------------|

| |

E|--------------------------------------------------------|

B|--------------------------------------------------------|

G|---------------------------------2-2-4-2--------5-4-5---|

D|------------------------------------------3-2-----------|

A|--------------------------------------------------------|

E|--------------------------------------------------------|

 

E|--------------------------------------------------------|

B|--------------------------------------------------------|

G|---------------2-2-2--2-2-2---------------2-2-2--2-2-2--|

D|--3-3-3-3-3-3--2-2-2--2-2-2--3-3-3-3-3-3--2-2-2--2-2-2--|

A|--3-3-3-3-3-3--0-0-0--0-0-0--3-3-3-3-3-3--0-0-0--0-0-0--|

E|--1-1-1-1-1-1----------------1-1-1-1-1-1----------------|

| |

E|--------------------------------------------------------|

B|--4--4--4--4b~~~~~~r------------------------------------|

G|---5--5--5----------------------------------------------|

D|--------------------------------------------------------|

A|--------------------------------------------------------|

E|--------------------------------------------------------|

 

E|--------------------------------------------------------|

B|--------------------------------------------------------|

G|---------------2-2-2--2-2-2---------------2-2-2--2-2-2--|

D|--3-3-3-3-3-3--2-2-2--2-2-2--3-3-3-3-3-3--2-2-2--2-2-2--|

A|--3-3-3-3-3-3--0-0-0--0-0-0--3-3-3-3-3-3--0-0-0--0-0-0--|

E|--1-1-1-1-1-1----------------1-1-1-1-1-1----------------|

 

E|--------------------------------------------------------|

B|--------------------------------------------------------|

G|---------------2----------------2222-2/4-2--2-22222220--|

D|--3-3-3-3-3-3--2----------------------------2-22222220--|

A|--3-3-3-3-3-3--0--0-0-0-0-0-0---------------------------|

E|--1-1-1-1-1-1-------------------------------------------|

 

E|--------------------------------------------------------|

B|--------------------------------------------------------|

G|--2222-2/4-2--2-22222220--2222-2/4-2--2-22222220--2222--|

D|--------------2-22222220--------------2-22222220--------|

A|--------------------------------------------------------|

E|--------------------------------------------------------|

 

E|--------------------------------------------------------|

B|--------------------------------------------------------|

G|--2/4-2--2-22222220--2222-2/4-2--2-22222220--2222-2/4-2-|

D|---------2-22222220--------------2-22222220-------------|

A|--------------------------------------------------------|

E|--------------------------------------------------------|

 

E|--------------------------------------------------------|

B|--------------------------------------------------------|

G|--2-22222220--5-5-5-5-5-5-5-5-2-2-2-2-2-2-2-2-5-5-5-5-5-|

D|--2-22222220--5-5-5-5-5-5-5-5-2-2-2-2-2-2-2-2-5-5-5-5-5-|

A|--------------3-3-3-3-3-3-3-3-0-0-0-0-0-0-0-0-3-3-3-3-3-|

E|--------------------------------------------------------|

 

E|--------------------------------------------------------|

B|--------------------------------------------------------|

G|5-5-5-2-2-2-2-2-2-2-2-5-5-5-5-5-5-5-5-2-2-2-2-2-2-2-2---|

D|5-5-5-2-2-2-2-2-2-2-2-5-5-5-5-5-5-5-5-2-2-2-2-2-2-2-2-5-|

A|3-3-3-0-0-0-0-0-0-0-0-3-3-3-3-3-3-3-3-0-0-0-0-0-0-0-0-5-|

E|------------------------------------------------------3-|

 

E|--------------------------------------------------------|

B|--------------------------------------------------------|

G|---------------2-2-2--2-2-2---------------2-2-2--2-2-2--|

D|--3-3-3-3-3-3--2-2-2--2-2-2--3-3-3-3-3-3--2-2-2--2-2-2--|

A|--3-3-3-3-3-3--0-0-0--0-0-0--3-3-3-3-3-3--0-0-0--0-0-0--|

E|--1-1-1-1-1-1----------------1-1-1-1-1-1----------------|

| |

E|--------------------------------------------------------|

B|--------------5-------------5b(.5)--------7~/9--12~/10--|

G|--------------7b(full)------4b(.25)-------6~/8--11~/ 9--|

D|--------------------------------------------------------|

A|--------------------------------------------------------|

E|--------------------------------------------------------|

 

E|--------------------------------------------------------|

B|--------------------------------------------------------|

G|---------------2--------------------------2-------------|

D|--3-3-3-3-3-3--2-------------3-3-3-3-3-3--2-------------|

A|--3-3-3-3-3-3--0-------------3-3-3-3-3-3--0-------------|

E|--1-1-1-1-1-1----------------1-1-1-1-1-1----------------|

| |

E|--------------------------------------------------------|

B|---13b(full)-----------------101010101010-10------------|

G|--14-------------------------121212121212-12b~~~~r(full)|

D|------------------------*****^^^^^^^^^^^^****-----------|

A|------------------------*Mute and bend these*-----------|

E|------------------------*********************-----------|

 

E|--------------------------------------------------------|

B|--------------------------------------------------------|

G|---------------2-2-2--2-2-2---------------2-2-2--2-2-2--|

D|--3-3-3-3-3-3--2-2-2--2-2-2--3-3-3-3-3-3--2-2-2--2-2-2--|

A|--3-3-3-3-3-3--0-0-0--0-0-0--3-3-3-3-3-3--0-0-0--0-0-0--|

E|--1-1-1-1-1-1----------------1-1-1-1-1-1----------------|

 

E|--------------------------------------------------------|

B|--------------------------------------------------------|

G|----------------2-2-2--2-2-2---2222-2/4-2--2-22222220---|

D|---3-3-3-3-3-3--2-2-2--2-2-2---------------2-22222220---|

A|---3-3-3-3-3-3--0-0-0--0-0-0----------------------------|

E|---1-1-1-1-1-1------------------------------------------|

 

E|--------------------------------------------------------|

B|--------------------------------------------------------|

G|--2222-2/4-2--2-22222220--2222-2/4-2--2-22222220--2222--|

D|--------------2-22222220--------------2-22222220--------|

A|--------------------------------------------------------|

E|--------------------------------------------------------|

 

E|--------------------------------------------------------|

B|--------------------------------------------------------|

G|--2/4-2--2-22222220--2222-2/4-2--2-22222220--2222-2/4-2-|

D|---------2-22222220--------------2-22222220-------------|

A|--------------------------------------------------------|

E|--------------------------------------------------------|

 

E|--------------------------------------------------------|

B|--------------------------------------------------------|

G|--2-22222220--2222-2/4-2--2-22222220--5-5-5-5-5-5-5-5---|

D|--2-22222220--------------2-22222220--5-5-5-5-5-5-5-5---|

A|--------------------------------------3-3-3-3-3-3-3-3---|

E|--------------------------------------------------------|

 

E|--------------------------------------------------------|

B|--------------------------------------------------------|

G|--2-2-2-2-2-2-2-2-5-5-5-5-5-5-5-5-2-2-2-2-2-2-2-2-5-5-5-|

D|--2-2-2-2-2-2-2-2-5-5-5-5-5-5-5-5-2-2-2-2-2-2-2-2-5-5-5-|

A|--0-0-0-0-0-0-0-0-3-3-3-3-3-3-3-3-0-0-0-0-0-0-0-0-3-3-3-|

E|--------------------------------------------------------|

 

E|--------------------------------------------------------|

B|--------------------------------------------------------|

G|--5-5-5-5-5-2-2-2-2-2-2-2-2-----------------------------|

D|--5-5-5-5-5-2-2-2-2-2-2-2-2-----------------------------|

A|--3-3-3-3-3-0-0-0-0-0-0-0-0-----------------------------|

E|------------------------------3--3-3-x-3-3-3--3-3-3--3-3|

 

E|--------------------------------------------------------|

B|--------------------------------------------------------|

G|-----------------------------------------------2222-2/4-|

D|--------------------------------------------------------|

A|--------------------------------------------------------|

E|-3--3-3-3--3-3-3--3-3-3--3-3-3--3-3-3--3-3-3------------|

 

E|--------------------------------------------------------|

B|--------------------------------------------------------|

G|--2--2-22222220---2222-2/4-2--2-22222220---2222-2/4-2-2-|

D|-----2-22222220---------------2-22222220--------------2-|

A|--------------------------------------------------------|

E|--------------------------------------------------------|

 

E|--------------------------------------------------------|

B|--------------------------------------------------------|

G|--22222220---2222-2/4-2--2-22222220---2222-2/4-2-2-2222-|

D|--22222220---------------2-22222220--------------2-2222-|

A|--------------------------------------------------------|

E|--------------------------------------------------------|

 

E|--------------------------------------------------------|

B|--------------------------------------------------------|

G|--2220------------------2--2-2-2-2-2-2-2----------------|

D|--2220----3-3-3-3-3-3---2--2-2-2-2-2-2-2---3-3-3-3-3-3--|

A|----------3-3-3-3-3-3---0--0-0-0-0-0-0-0---3-3-3-3-3-3--|

E|----------1-1-1-1-1-1----------------------1-1-1-1-1-1--|

 

E|--------------------------------------------------------|

B|--------------------------------------------------------|

G|-2--2-2-2-2-2-2-2----------------2--2-2-2-2-2-2-2-------|

D|-2--2-2-2-2-2-2-2---3-3-3-3-3-3--2--2-2-2-2-2-2-2---3-3-|

A|-0--0-0-0-0-0-0-0---3-3-3-3-3-3--0--0-0-0-0-0-0-0---3-3-|

E|--------------------1-1-1-1-1-1---------------------1-1-|

 

E|--------------------------------------------------------|

B|--------------------------------------------------------|

G|-----------2--2-2-2-2-2-2-2---------------------2-2-2-2-|

D|-3-3-3-3---2--2-2-2-2-2-2-2---3-3-3-3-3-3-3-3---2-2-2-2-|

A|-3-3-3-3---0--0-0-0-0-0-0-0---3-3-3-3-3-3-3-3---0-0-0-0-|

E|-1-1-1-1----------------------1-1-1-1-1-1-1-1-----------|

 

E|--------------------------------------------------------|

B|--------------------------------------------------------|

G|-2-2-2-2---------------------2-2-2-2-2-2-2-2------------|

D|-2-2-2-2---3-3-3-3-3-3-3-3---2-2-2-2-2-2-2-2---3-3-3-3--|

A|-0-0-0-0---3-3-3-3-3-3-3-3---0-0-0-0-0-0-0-0---3-3-3-3--|

E|-----------1-1-1-1-1-1-1-1---------------------1-1-1-1--|

 

E|--------------------------------------------------------|

B|--------------------------------------------------------|

G|--------------------------------------------------------|

D|-3-3-3-3--3-3-3-3-3-3-3-3--3-3-3-3-3-3-3-3--3-3-3-3-3-3-|

A|-3-3-3-3--3-3-3-3-3-3-3-3--3-3-3-3-3-3-3-3--3-3-3-3-3-3-|

E|-1-1-1-1--1-1-1-1-1-1-1-1--1-1-1-1-1-1-1-1--1-1-1-1-1-1-|

 

E|----------||

B|----------||

G|----------||

D|-3-3--3---||

A|-3-3--3---||

E|-1-1--1---||

 

Return to my to my Bush tabs page

The Tablature is Copyright its respective owners.

Sign Up For My Newsletter
Subscribe | Unsubscribe

Site Map | Disclaimer | Privacy Policy | Media Kit | Submissions/Corrections

Website © 2000-2014 mattsmusicpage.com. All rights reserved.

Legal & DMCA: Matt's Music Page has been providing lyrics and tabs in a legal way, paying royalties each year to a few organizations. Then, all lyrics and tabs were removed from the site. Now, there's a new owner to the site, which purchased it August 26, 2014, and he is in negotiation to obtain licensing from BMI at the moment. If you have a specific DMCA request -- please do not hesitate to contact me via the contact button on top. I will do my very best to keep this site fully legal.

Get our toolbar!