Your One-Stop Source For
Music Lyrics
Bass and Guitar Tabs
and More...
>Music Lyrics Bass and Guitar Tabs

 

The Tabs Are Below

Learn To Read Tab
Chords Handbook
Corrections & Additions
Get Official Tab
Bush tabs @ 911Tabs

"Swim" by BUSH

 

Intro

(no bass)

 

E------------------------------------------------|

B------------------------------------------------|

G---6-6-6-6-6--6--xx--4-4-4-xx-------------------|

D---6-6-6-6-6--6--xx--4-4-4-xx--5-5-5-xx--4-4-4--|

A---4-4-4-4-4--4--xx--2-2-2-xx--5-5-5-xx--4-4-4--|

E-------------------------------3-3-3-xx--2-2-2--|

 

Verses

(bass only)

 

G---------------------------|

D--------------------------*|

A--4-4-4-2-2---------------*|

E------------3--3-3-2-2-2---|

(Occasionally the guitar plays on the same note as the bass)

 

Chorus

 

E----------------------|

B---------------------*|

G------------3--3-x-x--|

D--2--2-x-x--3--3-x-x--|

A--2--2-x-x--1--1-x-x-*|

E--4--4-x-x------------|

(I'm not sure of the scratches, but you'll get it if you play w/ the song)

 

About 3 min. into the song their are little mini-solo things

They are:

 

E-------------| E--------12---------|

B------5-----*| B--11h12----11h12--*|

G--3h4---3h4--| and then G-------------------|

D-------------| D-------------------|

A------------*| A------------------*|

E-------------| E-------------------|

 

That's about it!

 

Questions, comments, reqests, write to KDang21.

 

Return to my to my Bush tabs page

The Tablature is Copyright its respective owners.

Sign Up For My Newsletter
Subscribe | Unsubscribe

Site Map | Disclaimer | Privacy Policy | Media Kit | Submissions/Corrections

Website © 2000-2014 mattsmusicpage.com. All rights reserved.

Legal & DMCA: Matt's Music Page has been providing lyrics and tabs in a legal way, paying royalties each year to a few organizations. Then, all lyrics and tabs were removed from the site. Now, there's a new owner to the site, which purchased it August 26, 2014, and he is in negotiation to obtain licensing from BMI at the moment. If you have a specific DMCA request -- please do not hesitate to contact me via the contact button on top. I will do my very best to keep this site fully legal.

Get our toolbar!

 

Miniature Guitar NOFX with free stand
$14.47
Miniature Guitar NOFX with free stand picture


Woody's Roundup Guitar Disney Pixar Toy Story Hallmark 2012 Magic Music NEW
$13.5
Woody's Roundup Guitar Disney Pixar Toy Story Hallmark 2012 Magic Music NEW picture


We Wish You A Merry Christmas Guitar HALLMARK 2013 Magic Sound Ornament NEW
$14.95
We Wish You A Merry Christmas Guitar HALLMARK 2013 Magic Sound Ornament NEW picture


Vintage Hand Tinted Color Photo Pretty Girl Martha Playing Guitar Music 630407
$9.99
Vintage Hand Tinted Color Photo Pretty Girl Martha Playing Guitar Music 630407 picture


Rockin Around the Christmas Tree 2012 Magic Guitar Ornament NEW in Box
$17.95
Rockin Around the Christmas Tree 2012 Magic Guitar Ornament NEW in Box picture