Your One-Stop Source For
Music Lyrics
Bass and Guitar Tabs
and More...
Music Lyrics Bass and Guitar Tabs

 

The Tabs Are Below

Learn To Read Tab
Chords Handbook
Corrections & Additions
Get Official Tab
Bush tabs @ 911Tabs

This is Swollowed by bush

 

^=bend

\=slide

~=VIBRATO

 

THIS IS THE VERSE

 

G#

E------------------------------------------------------

B-4-------------------------4--------------------------

G-5-----6------------10-----5----6---------------10^---

D-6----6----------10--------6------6----------10-------

A-6--4----------8--------0--6--4------------8--------0-

E-4------4--4\8-------------4--------4--4\8------------

 

THIS IS THE CHORUS

 

E----------------------------------------------------------------

B--9----8--------14---------14-----------------------------------

G-11^--10^-10\13----13---13----13----------15----15------15----15

D---------------------11----------11-13\15----15----13\15---15---

A----------------------------------------------------------------

E----------------------------------------------------------------

 

This is that one part:

 

E----------------------------

B--------------4--5~--5--5---

G-1-1-1-1--4\5------5--5---5-

D----------------------------

A----------------------------

E----------------------------

 

Return to my to my Bush tabs page

The Tablature is Copyright its respective owners.

Sign Up For My Newsletter
Subscribe | Unsubscribe

Site Map | Disclaimer | Privacy Policy | Media Kit | Submissions/Corrections

Website © 2000-2014 mattsmusicpage.com. All rights reserved.

Legal & DMCA: Matt's Music Page has been providing lyrics and tabs in a legal way, paying royalties each year to a few organizations. Then, all lyrics and tabs were removed from the site. Now, there's a new owner to the site, which purchased it August 26, 2014, and he is in negotiation to obtain licensing from BMI at the moment. If you have a specific DMCA request -- please do not hesitate to contact me via the contact button on top. I will do my very best to keep this site fully legal.

Get our toolbar!