Your One-Stop Source For
Music Lyrics
Bass and Guitar Tabs
and More...
Music Lyrics Bass and Guitar Tabs

 

The Tabs Are Below

Learn To Read Tab
Chords Handbook
Corrections & Additions
Get Official Tab
Bush tabs @ 911Tabs

Spacetravel - guitar

 

intro

 

B5 /////////////////////////

[ plam mute with slight arpeggiation]

 

E#5 ///////

 

 

 

verse

 

B5 ///// G5 /////

 

little bit of lead

 

E----------------------------|

B----------------------------|

G-4-4-4-4/5-5-5-5-5-5-5~~~~--|

D----------------------------|

A----------------------------|

E----------------------------|

 

 

chorus

 

C5 //// slide D5 ////

 

 

E---<19>--15---<12>---<19>--------------|

B---------------------------<19>--------|

G---------------------------------<19>--|

D---------------------------------------|

A---------------------------------------|

E---------------------------------------|

 

 

< > = harmonic

 

A5 G5

 

 

 

back to intro riff then verse

 

 

end chorus/bridge:

 

A5 B5 C5 C5 C5/D5\C5

 

/F5 [gliss] //////////////

 

E--------------------------|

B--------------------------|

G----5-4-4-5-4-4-5-4~~~~~~-|

D--------------------------|

A--------------------------|

E--------------------------|

 

 

outro:

 

G5 (high) // x x // x x // x x //

 

 

E-----------------------------------------------------------|

B-----------------------------------------------------------|

G-----------------------------------------------------------|

D-------------5-5/7-7-7-7-7-7-7-/-5-5-5-5-5-5-5-5-5---------|

A--3-3/5-3--7-----------------------------------------------|

E-----------------------------------------------------------|

 

E-------------------------------------------------------------|

B-----10----8---5h6p5~~~~~--5~~~~~-5/8------------------------|

G--9------9---------------------------------------------------|

D-------------------------------------------------------------|

A--------------------------------------7/5\7/12--12-12\10--10-|

E-------------------------------------------------------------|

 

 

E---------------------------------------12----12----12-----------|

B--10-10-10-10-10-10-10-10--10/13---13-----13----13----13-13-----|

G----------------------------------------------------------------|

D----------------------------------------------------------------|

A----------------------------------------------------------------|

E----------------------------------------------------------------|

 

E---------15-15---------15-15---------15-15--------15-15---------15-15|

B--12h13---------12h13---------12h13---------12h13--------12h13-------|

G---------------------------------------------------------------------|

D---------------------------------------------------------------------|

A---------------------------------------------------------------------|

E---------------------------------------------------------------------|

 

 

E---------15-15---------15-15---------15-15--------------------|

B--12h13---------12h13---------12h13--------13--13-12--8--10---|

G--------------------------------------------------------------|

D--------------------------------------------------------------|

A--------------------------------------------------------------|

E--------------------------------------------------------------|

 

E-----8-----------15--------15-15--------15-15---10/12--12-12-12-12-12-12--|

B--5-----13--12-------12h13--------12h13-----------------------------------|

G--------------------------------------------------------------------------|

D--------------------------------------------------------------------------|

A--------------------------------------------------------------------------|

E--------------------------------------------------------------------------|

 

 

 

*englishfire1@aol.com

 

Return to my to my Bush tabs page

The Tablature is Copyright its respective owners.

Sign Up For My Newsletter
Subscribe | Unsubscribe

Site Map | Disclaimer | Privacy Policy | Media Kit | Submissions/Corrections

Website © 2000-2014 mattsmusicpage.com. All rights reserved.

Legal & DMCA: Matt's Music Page has been providing lyrics and tabs in a legal way, paying royalties each year to a few organizations. Then, all lyrics and tabs were removed from the site. Now, there's a new owner to the site, which purchased it August 26, 2014, and he is in negotiation to obtain licensing from BMI at the moment. If you have a specific DMCA request -- please do not hesitate to contact me via the contact button on top. I will do my very best to keep this site fully legal.

Get our toolbar!