Your One-Stop Source For
Music Lyrics
Bass and Guitar Tabs
and More...
Music Lyrics Bass and Guitar Tabs

 

The Tabs Are Below

Learn To Read Tab
Chords Handbook
Corrections & Additions
Get Official Tab
Bush tabs @ 911Tabs

BUSH

Golden State

01 SOLUTIONS

 

ambika@attbi.com

 

intro/verse:

 

(let ring)

E-------------------------------------------------------|

B-------------------------------------------------------|

G-------9-------------9--------------9------------------|

D-9h11-----11---9h11-----11----9h11-----11--------------|

A-------------------------------------------------------|

E-------------------------------------------------------|

(00:00 - 00:20)

 

repeat once again at "we move.."

"we break.."

"we torch.."

etc..

 

prechorus

 

F#5 D5 B5 A5 (when ending after bridge go to D5 and E5 (8va) rather than A5)

 

fill on D5

let ring----------------|

E---5-------5-----5-------------------------------------|

B------5------5-----5-----------------------------------|

G---------7-----7-----7----------------3^1/2------------|

D-------------------------------------------------------|

A-------------------------------------------------------|

E-------------------------------------------------------|

end prechorus on this bend--------------^

 

 

chorus F#5 E5* F#5* *8va

 

 

bridge

 

rhythm

 

E-------------------------------------------------------|

B-------------------------------------------------------|

G-4-4---------4-----------------------------------------|

D-4-4---------4--4-4---------4--------------------------|

A-2-2-2-3-2-0-2--4-4---------4--------------------------|

E----------------2-2-2-3-2-0-2--------------------------|

 

 

lead

 

 

just throw some vibrato in and play with these notes

 

E-------------------------------------------------------|

B-------------------------------------------------------|

G-/14~-14~-14~-14-14-14-14-14-14-14-14-14-13-14-14-14---|

D-------------------------------------------------------|

A-------------------------------------------------------|

E-------------------------------------------------------|

 

E---------------------------------------------------------|

B---------------------------------------------------------|

G--13-14-16-16-16-16-14-13-14-14-14-13-14-14-14-14-13-16^-|

D---------------------------------------------------------|

A---------------------------------------------------------|

E---------------------------------------------------------|

 

 

prechorus/chorus

 

for the lead, just take the notes above, bend and tremolo pick a bit with tons of amp noise.

 

Return to my to my Bush tabs page

The Tablature is Copyright its respective owners.

Sign Up For My Newsletter
Subscribe | Unsubscribe

Site Map | Disclaimer | Privacy Policy | Media Kit | Submissions/Corrections

Website © 2000-2014 mattsmusicpage.com. All rights reserved.

Legal & DMCA: Matt's Music Page has been providing lyrics and tabs in a legal way, paying royalties each year to a few organizations. Then, all lyrics and tabs were removed from the site. Now, there's a new owner to the site, which purchased it August 26, 2014, and he is in negotiation to obtain licensing from BMI at the moment. If you have a specific DMCA request -- please do not hesitate to contact me via the contact button on top. I will do my very best to keep this site fully legal.

Get our toolbar!

 

Starbucks You Are Here Coffee Mug/Cup KENTUCKY - Horses, Banjo, Blue, White
$19.99
Starbucks You Are Here Coffee Mug/Cup KENTUCKY - Horses, Banjo, Blue, White picture


KNOWLES ROCKWELL HERITAGE "THE BANJO PLAYER" FIRST EDITION 1989 PLATE COA
$5.99
KNOWLES ROCKWELL HERITAGE


Vintage Postcard 1981 Disney World Banjo Kings Main Street USA 1981 Postmark
$4.99
 Vintage Postcard 1981 Disney World Banjo Kings Main Street USA 1981 Postmark picture


Banjo Barometer With Thermometer Hygrometer 490mm
$84.76
Banjo Barometer With Thermometer Hygrometer 490mm picture


ANTIQUE JAPANESE NIPPON FIGURINE SET OF 3 WOMEN GEISHA PLAYING DRUM BANJO FAN
$24.0
ANTIQUE JAPANESE NIPPON FIGURINE SET OF 3 WOMEN GEISHA PLAYING DRUM BANJO FAN picture