Your One-Stop Source For
Music Lyrics
Bass and Guitar Tabs
and More...
Music Lyrics Bass and Guitar Tabs

 

The Tabs Are Below

Learn To Read Tab
Chords Handbook
Corrections & Additions
Get Official Tab
Bush tabs @ 911Tabs

Bush

The People That We Love

Album: Golden State

by: http://howlingmoons.cjb.net

 

intro:

 

guitar 1

 

 

 

E--------------------------------------------------------------|

B-10--10--10--10--10--10--10--10--10--10--10----10----13-------|

G--8---8---8---8---8---8---8---8---8---8---8-------8-----14----|

D--------------------------------------------------------------|

A--------------------------------------------------------------|

E--------------------------------------------------------------|

 

E--------------------------------------------------------------|

B-10--10---10-x--10--10-x-10--10--10--10----10----13-----------|

G--8---8----8-x---8---8-x--8---8---8---8-------8-----14--------|

D--------------------------------------------------------------|

A--------------------------------------------------------------|

E--------------------------------------------------------------|

 

 

guitar 2 (high lead wah noise)

 

E-17----------------|

B-------------------|

G----20-------------|

D-------------------|

A-------------------|

E-------------------|

[alternate between those two notes]

 

 

after first time play general chorus power chord rhythm along with guitar 1

and two, and then repeat guitar one and two without the power chords.

 

 

Chorus:

 

guitar 1

 

A5 /// E5 //// C5 //// A5 G5 A5 //

 

 

guitar 2

 

E-------------------------------------------------|

B-------------------------------------------------|

G-8-8-8-8-8-8-8-8h9-9-9-9-9-9-9-------------------|

D-7-7-7-7-7-7-7-7---7-7-7-7-7-7-------------------|

A-------------------------------------------------|

E-------------------------------------------------|

 

 

Verse:

 

A5 /// E5 //// C5 //// A5 G5 A5 // (with hard palm mute)

 

 

"part 3":

F5 //////////////// B5 //////////////// F5 //////////////// (8va) C5 / / /// B //

 

 

 

post part 3 with guitar effect:

 

 

E-------------------------------------------------|

B-------------------------------------------------|

G-------------------------------------------------|

D-7-7-7----------10-10-10-10--7-5-7-7-------------|

A-------7-7-7-7-----------------------------------|

E-------------------------------------------------|

 

 

"what happened to you"

 

A5 E5 C5 A5 G5 A5

 

 

 

Solo:

 

E--10^(whole)~~------8^whole---|

B------------------------------|

G------------------------------|

D-------------7--5-------------|

A------------------------------|

E------------------------------|

 

*

E------------------------------|

B------------------------------|

G------------------------------|

D--7-7-9-9^(1/2)release(9)-----|

A------------------------------|

E------------------------------|

 

E------------------------------|

B------------------------------|

G------------------------------|

D--7-9-7-12^(whole)------------|

A------------------------------|

E------------------------------|

 

repeat from * and hold bend

 

 

outro: A5 E5 C5

 

 

 

Return to my to my Bush tabs page

The Tablature is Copyright its respective owners.

Sign Up For My Newsletter
Subscribe | Unsubscribe

Site Map | Disclaimer | Privacy Policy | Media Kit | Submissions/Corrections

Website © 2000-2014 mattsmusicpage.com. All rights reserved.

Legal & DMCA: Matt's Music Page has been providing lyrics and tabs in a legal way, paying royalties each year to a few organizations. Then, all lyrics and tabs were removed from the site. Now, there's a new owner to the site, which purchased it August 26, 2014, and he is in negotiation to obtain licensing from BMI at the moment. If you have a specific DMCA request -- please do not hesitate to contact me via the contact button on top. I will do my very best to keep this site fully legal.

Get our toolbar!

 

1983 SEALED LP Return of the Jedi + 1977 Star Wars Vinyl 2 Record Set - Sci-Fi
$22.5
1983 SEALED LP Return of the Jedi + 1977 Star Wars Vinyl 2 Record Set - Sci-Fi picture


Frank Sinatra - Swingin Lovers & Sept of My Years (Reprise)[LP-Vinyl] RECORDS
$10.0
Frank Sinatra - Swingin Lovers & Sept of My Years (Reprise)[LP-Vinyl] RECORDS picture


Ion Audio Turntable & Vinyl Record Archiver with USB Connector TTUSB10 - EUC
$59.99
Ion Audio Turntable & Vinyl Record Archiver with USB Connector TTUSB10 - EUC picture


Vintage 1975 LP Big Rig Truckers LP Put the Hammer Down - Vinyl Record
$15.99
Vintage 1975 LP Big Rig Truckers LP Put the Hammer Down - Vinyl Record picture


1970`s Sanrio HELLO KITTY Vinyl Record STICKERS Vintage VERY RARE
$0.99
1970`s Sanrio HELLO KITTY Vinyl Record STICKERS Vintage VERY RARE picture