Your One-Stop Source For
Music Lyrics
Bass and Guitar Tabs
and More...
Music Lyrics Bass and Guitar Tabs

 

The Tabs Are Below

Learn To Read Tab
Chords Handbook
Corrections & Additions
Get Official Tab
Bush tabs @ 911Tabs

Bush

My Engine is With You

Album: Golden State

by: http://howlingmoons.cjb.net

 

intro:

 

(x4)

E--------------------------------------------------------------|

B--------------------------------------------------------------|

G--------------------------------------------------------------|

D-10/12-10/12-10/12-10/12--10/12-10/12-------------------------|

A--------------------------------------------------------------|

E--8/10- 8/10--8/10--8/10---8/10--8/10-------------------------|

 

 

verse:

 

guitar 1

 

D5 ///// Bb5 //// B5 //

 

guitar 2

 

*keep repeating

E--------------------------------------------------------------|

B--------------------------------------------------------------|

G--------------------------------------------------------------|

D--10h12-10h12-10h12-10h12-10h12-10h12-10h12-10h12-10h12-------|

A--------------------------------------------------------------|

E--------------------------------------------------------------|

 

"infractions of the landscape..."

 

G5 / slide F5

 

 

guitar 1

 

D5 ///// F5 //// F#5 //

 

guitar 2 ("my engine is with you!")

 

E--------------------------------------------------------------|

B--------------------------------------------------------------|

G--------10----10---------10----10-----------------------------|

D--10/12----12------10/12----12--------------------------------|

A--------------------------------------------------------------|

E--------------------------------------------------------------|

 

 

solo:

 

I don't see much purpose in transcribing the entire thing. I would

suggest that you just improvise with speed in D blues scale, modulate

for a while, then imitate Nigel at the end of his solo with the full

bend on E# (13th fret, high E string).

 

 

post solo:

use your judgement on this--bend a little, mute

a little, make it grungy.

 

E--------------------------------------------|

B--------------------------------------------|

G--10-------7-------10------10---------------|

D--10-------7-------10------10---------------|

A--------------------------------------------|

E--------------------------------------------|

 

repeat from verse.

 

 

Return to my to my Bush tabs page

The Tablature is Copyright its respective owners.

Sign Up For My Newsletter
Subscribe | Unsubscribe

Site Map | Disclaimer | Privacy Policy | Media Kit | Submissions/Corrections

Website © 2000-2014 mattsmusicpage.com. All rights reserved.

Legal & DMCA: Matt's Music Page has been providing lyrics and tabs in a legal way, paying royalties each year to a few organizations. Then, all lyrics and tabs were removed from the site. Now, there's a new owner to the site, which purchased it August 26, 2014, and he is in negotiation to obtain licensing from BMI at the moment. If you have a specific DMCA request -- please do not hesitate to contact me via the contact button on top. I will do my very best to keep this site fully legal.

Get our toolbar!

 

VINTAGE SORRENTO MUSIC JEWELRY BOX
$45.0
VINTAGE SORRENTO MUSIC JEWELRY BOX picture


VINTAGE LACQUERED MUSIC BOX JAPAN
$25.99
VINTAGE LACQUERED MUSIC BOX JAPAN picture


Vintage Kehlsteinhaus Bavaria Germany Colorscope Cow Bell View Master Music Box
$8.99
Vintage Kehlsteinhaus Bavaria Germany Colorscope Cow Bell View Master Music Box picture


VINTAGE SCHMIDT Signed Collectible Musical Turning Clown
$9.99
VINTAGE  SCHMIDT Signed Collectible Musical Turning Clown picture


Vintage - Linen - Postcard - Stage - Radio City Music Hall - New York City
$3.75
Vintage - Linen - Postcard - Stage - Radio City Music Hall - New York City   picture