Your One-Stop Source For
Music Lyrics
Bass and Guitar Tabs
and More...
Music Lyrics Bass and Guitar Tabs

 

The Tabs Are Below

Learn To Read Tab
Chords Handbook
Corrections & Additions
Get Official Tab
Bush tabs @ 911Tabs

Mouth

Bush

 

 

BAR1 BAR2 BAR3 BAR4 BAR5

e|---X-----X-----X-----X-----X---

BAR1: 133XXX b|---X-----X-----X-----X-----X---

BAR2: 355XXX g|---X-----X-----X-----X-----X---

BAR3: 466XXX d|---3-----5-----6-----8-----10--

BAR4: 688XXX a|---3-----5-----6-----8-----10--

BAR5: 8 10 10XXX e|---1-----3-----4-----6-----8---

 

 

INTRO/VERSES:

BAR1

e|----X-----------------------------------------------

b|----X-----------------------------------------------

g|----X----5s-4---4---5s-4s-2-------------------------

d|----3-----------------------------------------------

a|----3-----------------------------------------------

e|----1-----------------------------------------------

 

Finger Ditty #1:

e|------------------------------

b|------------------------------

g|---5--5--5--5b-s6--5s-6--2----

d|------------------------------

a|------------------------------

e|------------------------------

 

Finger Ditty #2:

e|---7--7--7--7b-s8--7s-8--5----

b|------------------------------

g|------------------------------

d|------------------------------

a|------------------------------

e|------------------------------

 

CHORUS #1:

BAR1 BAR3 BAR2

e|---x-----x-----x-----x-----x------------------------

b|---x-----x-----x-----x-----x------------------------

g|---x-----x-----x-----x-----x------------------------

d|---3-----3-----6-----6-----5------------------------

a|---3-----3-----6-----6-----5------------------------

e|---1-----1-----4-----4-----3------------------------

 

CHORUS #2:

BAR1 BAR3 BAR2 BAR4

e|---x-----x-----x-----x-----x-----x-----x------------

b|---x-----x-----x-----x-----x-----x-----x------------

g|---x-----x-----x-----x-----x-----x-----x------------

d|---3-----3-----6-----6-----5-----8-----8------------

a|---3-----3-----6-----6-----5-----8-----8------------

e|---1-----1-----4-----4-----3-----6-----6------------

 

BRIDGE/SOLO:

BAR5 BAR3

e|---x-----x-----x-----x-----x------------------------

b|---x-----x-----x-----x-----x------------------------

g|---x-----x-----x-----x-----x-----4~~~5~~~~~7~~~~8---

d|---10----10----10----6-----6------------------------

a|---10----10----10----6-----6------------------------

e|---8-----8-----8-----4-----4------------------------

 

LYRICS:

You gave me this, made me give.

Your silver grin

(still sticking it in).

 

You have...soul machine

Soul machine.

 

The longest kiss

Peeling furniture days

Drift madly to you

Pollute my heart, drain

 

You have...stolen me

Broken on me,

Broken me

All your mental armour,

Dargs me down.

Nothing Hurts, like:

Your mouth.

 

Your loaded smile

Pretty just dessert.

I wish it all for you

So much it never hurts.

 

You have soul machine

Stolen me

All your mental armour

Drags me down.

We can't Breathe

When you come Around.

All your mental armour drags me down

Nothing hurts like....

Your mouth, mouth, mouth.

Your mouth, mouth, mouth.

 

We've been missing long before,

Never found our way home

We've been missing long before,

We will find our way.

 

You gave me this,

Made me give.

 

You have... soul machine

Broken free.

All your mental armour drags me down.

We can't breathe when you come around.

All your mental armour drags me down.

Nothing hurts like your mouth.

Your mouth, mouth, mouth.

Your mouth, mouth, mouth.

Your mouth, mouth, mouth.

All your mental armour

All your mental armour

and you mouth, mouth, etc.

 

 

--------------------------------------------------------------------------------

Mouth

Bush

 

E|--------------------|--------------------|--------------------|

B|--------------------|--------------------|--------------------|

G|---1---4\-----------|---1---4---3/4-4430-|---1---4---(3)------|

D|-2--0------4--4-440-|-2--0----4----------|-2--0----4--(4)-----|

A|-2---------X--------|-22------X----------|-2-------X----------|

E|-0----3----2--------|-0----3--2----------|-0----3--2----------|

 

E|--------------------|--------------------|--------------------|

B|--------------------|--------------------|--------------------|

G|---1---4------------|----1-------3h4-3h4-|(1)-----------------|

D|-2--0----4--4-------|-2-2----------------|--------------------|

A|-2-------X----------|-2------------------|--------------------|

E|-0----3--2----------|-0----3--2----------|--------------------|

 

E|--------------------|--------------------|--------------------|

B|--------------------|--------------------|--------------------|

G|--(1)---4-----------|---1---4------------|---1---4------------|

D|---(0)----4---------|----0----4----------|-2--0----4----------|

A|----------X---------|---------X----------|-2-------X----------|

E|-------3--2---------|------3--2----------|-0----3--2----------|

 

E|--------------------|--------------------|--------------------|

B|--------------------|--------------------|--------------------|

G|---1---4------------|--------------------|--------------------|

D|-2--0----4----------|-222-55-4~----------|-222-55-4~----------|

A|-2-------X----------|-222-55-4~----------|-222-55-4~----------|

E|-0----3--2----------|-000-33-2~----------|-000-33-2~----------|

| |

| |

E|--------------------|--------------------|--------------------|

B|--------------------|-5------------------|--------------------|

G|--------------------|-7b~~~~~~r----------|--------------------|

D|--------------------|--------------------|--------------------|

A|--------------------|--------------------|--------------------|

E|--------------------|--------------------|--------------------|

 

E|--------------------|--------------------|--------------------|

B|--------------------|--------------------|------5-------------|

G|----1--4p0--(444444)|---1---40-----------|---1--4---(00)3/430-|

D|-2-2-------4--------|----2-----4---------|-2-2----4-----------|

A|-2---------X--------|-22-------X---------|-2------X-----------|

E|-0----3----2--------|-0----3---2---------|-0---3--2-----------|

 

E|--------------------|--------------------|--------------------|

B|--------------------|--------------------|--------------------|

G|---1---4------------|--------------------|--------------------|

D|-2--0----4----------|-222-55-4~----------|--222-55-4-444444---|

A|-2-------X----------|-222-55-4~----------|--222-55-4-4444440--|

E|-0----3--2----------|-000-33-2~----------|--000-33-2-2222220--|

 

E|--------------------|--------------------|--------------------|

B|--------------------|--------------------|--------------------|

G|--------------------|--------------------|--------------------|

D|-222XX55-4-44/7-77XX|-222XX55-4----------|-222XX55-4~---------|

A|-222XX55-4-44/7-77XX|-222XX55-4----------|-222XX55-4~---------|

E|-000XX3302-22/5-55XX|-000XX3302----------|-000XX3302~---------|

 

E|--------------------|--------------------|--------------------|

B|--------------------|--------------------|--------------------|

G|---1---4---(3-33330)|---1---4---3/444430-|---1---4------------|

D|-2--0----4----------|-2--0----4----------|-2--0----4----------|

A|-2-------X----------|-2-------X----------|-2-------X----------|

E|-0----3--2----------|-0----3--2----------|-0----3--2----------|

| |

| |

E|--------------------|--------------------|---------{666)6h76h7|

B|-5~~(5)~~(5)~~~~~(5)|~~~~~~(5)~~~~~(5)~~~|--------------------|

G|--------------------|--------------------|--------------------|

D|--------------------|--------------------|--------------------|

A|--------------------|--------------------|--------------------|

E|--------------------|--------------------|--------------------|

 

E|--------------------|--------------------|--------------------|

B|--------------------|--------------------|--------------------|

G|---1---40-----------|---1----------------|---1---4------------|

D|----0-----4---------|-2--0---------------|-2--0----4----------|

A|-22-------X---------|-2------------------|-2-------X----------|

E|-0----3---2---------|-0----3--2----------|-0----3--2----------|

| |

| |

E|-4~~~~~~~~~~~~~~~~~*|********************|****************----|

B|-------------------*Have volume knob on the guitar turned*----|

G|-------------------*all the way down when you hit it and *----|

D|-------------------*then turn the volume up and back down*----|

A|-------------------*|********************|****************----|

E|--------------------|---------2--~~~~~~~-|--------------------|

 

E|--------------------|--------------------|--------------------|

B|--------------------|--------------------|--------------------|

G|--------------------|--------------------|--------------------|

D|-222-55-4~----------|--222-55-4-444444---|-222XX55-4-44/7-77XX|

A|-222-55-4~----------|--222-55-4-4444440--|-222XX5504-44/7-77XX|

E|-000-33-2~----------|--000-33-2-2222220--|-000XX3302-22/5-55XX|

| |

| |

E|--------------------|--------------------|--------------------|

B|--------------------|-----------0000000--|--------------------|

G|--------------------|-----------4444444--|--------------------|

D|--------------------|--------------------|--------------------|

A|--------------------|--------------------|--------------------|

E|--------------------|--------------------|--------------------|

 

E|--------------------|--------------------|--------------------|

B|--------------------|--------------------|--------------------|

G|--------------------|--------------------|--------------------|

D|-222XX55-4-44/7-77XX|-222XX55-4-44/7-77XX|-222XX55-4----------|

A|-222XX5504-44/7-77XX|-222XX5504-44/7-77XX|-222XX5504----------|

E|-000XX3302-22/5-55XX|-000XX3302-22/5-55XX|-000XX3302----------|

 

E|--------------------|--------------------|--------------------|

B|--------------------|--------------------|--------------------|

G|--------------------|--------------------|------------2~------|

D|-222XX55-4-44/7-77XX|-222XX55-4-44/7-77XX|-222XX55-4--2~------|

A|-222XX5504-44/7-77XX|-222XX5504-44/7-77XX|-222XX5504--0~------|

E|-000XX3302-22/5-55XX|-000XX3302-22/5-55XX|-000XX3302----------|

| |

| |

E|--------------------|---------------(1.5)|--------------------|

B|-5\3-5\3-5\3-5\3-5\3|5\3-5\3-5\3-5\3/7b~~|~~r-----------------|

G|--------------------|--------------------|--------------------|

D|--------------------|--------------------|--------------------|

A|--------------------|--------------------|--------------------|

E|--------------------|--------------------|--------------------|

 

E|--------------------|--------------------|--------------------|

B|--------------------|--------------------|--------------------|

G|--------------------|--------------------|--------------------|

D|-99999999\55555555--|-99999999\55555555--|-99999999\55555555--|

A|-99999999\55555555--|-99999999\55555555--|-99999999\55555555--|

E|-77777777\33333333--|-77777777\33333333--|-77777777\33333333--|

| |

| |

E|--------------------|--------------------|--------------------|

B|--------------------|--------------------|--------------------|

G|--------3/55/88/1010|/12-----------------|--------------------|

D|--------------------|--------------------|--------------------|

A|--------------------|--------------------|--------------------|

E|--------------------|--------------------|--------------------|

 

{ PROGRESSIVE }

E|--------------------|---------9-99-99-99-|9-------------------|

B|--------------------|--------------------|--------------------|

G|--------------------|--------------------|--------------------|

D|-99999999\5~--------|-2~--5~-4~----------|-2~--5~-4~----------|

A|-99999999\5~--------|-2~--5~-4~----------|-2~--5~-4~----------|

E|-77777777\3~--------|-0~--3~-2~----------|-0~--3~-2~----------|

 

E|--------------------|--------------------|--------------------|

B|--------------------|--------------------|--------------------|

G|--------------------|--------------------|--------------------|

D|-2~--5~-4~----------|-2~--5~-4~----------|-222-55-4~----------|

A|-2~--5~-4~----------|-2~--5~-4~----------|-222-55-4~----------|

E|-0~--3~-2~----------|-0~--3~-2~----------|-000-33-2~----------|

 

E|--------------------|--------------------|--------------------|

B|--------------------|--------------------|--------------------|

G|--------------------|--------------------|--------------------|

D|--222-55-4-444444---|-222XX55-4-44/7-77XX|-222XX55-4-44/7-77XX|

A|--222-55-4-4444440--|-222XX5504-44/7-77XX|-222XX55-4-44/7-77XX|

E|--000-33-2-2222220--|-000XX3302-22/5-55XX|-000XX3302-22/5-55XX|

| |

| |

E|-12-----------------|--------------------|--------------------|

B|-15b~~~~~~r---------|--------------------|--------------------|

G|------------X3333333|4-------------------|--------------------|

D|--------------------|--------------------|--------------------|

A|--------------------|--------------------|--------------------|

E|--------------------|--------------------|--------------------|

 

E|--------------------|--------------------|--------------------|

B|--------------------|--------------------|{ REPEAT 9X }|

G|--------------------|--------------------|--------------------|

D|-222XX55-4-44/7-77XX|-222XX55-4----------|-222XX55-4-44/7-77XX|

A|-222XX5504-44/7-77XX|-222XX5504----------|-222XX5504-44/7-77XX|

E|-000XX3302-22/5-55XX|-000XX3302----------|-000XX3302-22/5-55XX|

 

E|------------------------||

B|------------------------||

G|------------------------||

D|-222XX55X4~-------------||

A|-222XX55X4~-------------||

E|-000XX33X2~-------------||

| ||

| ||

E|---------12-------------||

B|---------15b~~/17b~~~r--||

G|------------------------||

D|------------------------||

A|------------------------||

E|------------------------||

 

 

Return to my to my Bush tabs page

The Tablature is Copyright its respective owners.

Sign Up For My Newsletter
Subscribe | Unsubscribe

Site Map | Disclaimer | Privacy Policy | Media Kit | Submissions/Corrections

Website © 2000-2014 mattsmusicpage.com. All rights reserved.

Legal & DMCA: Matt's Music Page has been providing lyrics and tabs in a legal way, paying royalties each year to a few organizations. Then, all lyrics and tabs were removed from the site. Now, there's a new owner to the site, which purchased it August 26, 2014, and he is in negotiation to obtain licensing from BMI at the moment. If you have a specific DMCA request -- please do not hesitate to contact me via the contact button on top. I will do my very best to keep this site fully legal.

Get our toolbar!