Your One-Stop Source For
Music Lyrics
Bass and Guitar Tabs
and More...
Music Lyrics Bass and Guitar Tabs

 

The Tabs Are Below

Learn To Read Tab
Chords Handbook
Corrections & Additions
Get Official Tab
Bush tabs @ 911Tabs

mindchanger - guitar

 

 

intro:

 

intro/verse1

 

guitar 1:

E--------------------------|

B--------------------------|

G-9--7--9--7---9---7-7-----|

D--------------------------|

A--------------------------|

E--------------------------|

 

guitar 2:

E--------------------------|

B--------------------------|

G--------------------------|

D--------------------------|

A-2-8-7-5-5--2-7-5-7-2-----|

E-0-6-5-3-3--0-5-3-5-0-----|

 

 

verse2/chorus:

 

E5 [high]

 

D5

 

C5

 

lead: [repeat]

E-----------------------------------------------------------|

B--7h8-7h8-7h8-7h8-7h8--5h7h8-5h7h8-5h7h8-5h7h8-5h7h8-------|

G-----------------------------------------------------------|

D-----------------------------------------------------------|

A-----------------------------------------------------------|

E-----------------------------------------------------------|

 

 

E--------------------------|

B--7-8~~~---7--5--3--------|

G--------------------------|

D--------------------------|

A--------------------------|

E--------------------------|

 

repeat both parts

 

end on:

E--------------------------|

B--7-----------------------|

G--9^whole-----------------|

D--------------------------|

A--------------------------|

E--------------------------|

 

 

*englishfire1@aol.com

 

Return to my to my Bush tabs page

The Tablature is Copyright its respective owners.

Sign Up For My Newsletter
Subscribe | Unsubscribe

Site Map | Disclaimer | Privacy Policy | Media Kit | Submissions/Corrections

Website © 2000-2014 mattsmusicpage.com. All rights reserved.

Legal & DMCA: Matt's Music Page has been providing lyrics and tabs in a legal way, paying royalties each year to a few organizations. Then, all lyrics and tabs were removed from the site. Now, there's a new owner to the site, which purchased it August 26, 2014, and he is in negotiation to obtain licensing from BMI at the moment. If you have a specific DMCA request -- please do not hesitate to contact me via the contact button on top. I will do my very best to keep this site fully legal.

Get our toolbar!