Your One-Stop Source For
Music Lyrics
Bass and Guitar Tabs
and More...
Music Lyrics Bass and Guitar Tabs

 

The Tabs Are Below

Learn To Read Tab
Chords Handbook
Corrections & Additions
Get Official Tab
Bush tabs @ 911Tabs

Tab : Machine Head by: Bush

Tabbed By: ZACH Downey*

This is my first tab file but,I think it's pretty acurate.There a couple of different parts to this song

but I don't know where they go in order .So I'll just tab them and let you figure it out.

 

Intro (fill 1)

1:----------------------------------------

2:----------------------------------------

3:----------------------------------------

4:-11-11-13-13-13/14-14/16-16

5:--x--x---x--x---x--x----x---x---x

6:- 9--9--11-11-11/12-12/16-16

 

 

Fill 2

1:-------------------------------------------------------------------------------------------

2:-14-14-14-14\12-12-12-12/14-14-14-14\12-12-12-12/14-14-14-14\

3:-13-13-13-13\11-11-11-11/13-13-13-13\11-11-11-11/13-13-13-13\

4:-------------------------------------------------------------------------------------------

5:-------------------------------------------------------------------------------------------

6:-------------------------------------------------------------------------------------------

 

 

As fill 1 is played guitar 2 needs to play this

1:-----------------------------

2:-----------------------------

3:-----------------------------

4:-11----7----11----7-----

5:-11----7----11----7-----

6:-9------5----9-----5------

( c#5 a5 c#5 a5)

stop fill 1 and guitar 1 play this

1:------------------------------------------------------------------------------------------------------------------------------

2:------------------------------------------------------------------------------------------------------------------------------

3:------------------------------------------------------------------------------------------------------------------------------

4:-11-11-x-x-x-11-----11-11-x-x-x-x-11-11-x-x-x-11-----11-11-x-x-x-x-7-7-x-x-x-7-----7-7-x-x-x-x-7-

5:-11-11-x-x-x-11-----11-11-x-x-x-x-11-11-x-x-x-11-----11-11-x-x-x-x-7-7-x-x-x-7-----7-7-x-x-x-x-7-

6:-9---9--x-x-x--9--------9--9--x-x-x-x--9--9--x-x-x--9-------9---9--x-x-x-x-5-5-x-x-x-5-----5-5-x-x-x-x-5-

 

1:----------------------------------

2:----------------------------------

3:----------------------------------

4:7-x-x-x-7-----7-7-x-x-x-x-

5:7-x-x-x-7-----7-7-x-x-x-x-

6:5-x-x-x-5-----5-5-x-x-x-x-

 

Begin fill 2 on guitar 2

 

The part at the first chorus("Got a machinehead,it's better than the rest "etc.) Goes like this:

 

1:------------------------

2:-4h5-5-5-4h5-5-5- Repeat and crecendo until "I walk from my machine..."etc.

3:------------------------

4:------------------------

5:------------------------

6:------------------------

 

OK finally that's it if i missed something e-mail me and let me know.If you want a song transcribed e-mail me and i'll see if i can do it.If you need any Nirvana tabs let me know and i'll tab 'em for ya. E-MAIL to ZACHCOOL@aol.com or GUITAR1071@aol.com and i'll get back to you.

zachcool@aol.com

or

guitar1071@aol.com

 

Return to my to my Bush tabs page

The Tablature is Copyright its respective owners.

Sign Up For My Newsletter
Subscribe | Unsubscribe

Site Map | Disclaimer | Privacy Policy | Media Kit | Submissions/Corrections

Website © 2000-2014 mattsmusicpage.com. All rights reserved.

Legal & DMCA: Matt's Music Page has been providing lyrics and tabs in a legal way, paying royalties each year to a few organizations. Then, all lyrics and tabs were removed from the site. Now, there's a new owner to the site, which purchased it August 26, 2014, and he is in negotiation to obtain licensing from BMI at the moment. If you have a specific DMCA request -- please do not hesitate to contact me via the contact button on top. I will do my very best to keep this site fully legal.

Get our toolbar!