Your One-Stop Source For
Music Lyrics
Bass and Guitar Tabs
and More...
Music Lyrics Bass and Guitar Tabs

 

The Tabs Are Below

Learn To Read Tab
Chords Handbook
Corrections & Additions
Get Official Tab
Bush tabs @ 911Tabs

Jesus Online - guitar

 

intro/verse

 

E-------------------------------|

B-------------------------------|

G-------------------------------|

D-5-5-/-5--13-13-13-13-13-------|

A-x-x---x---x--x--x--x--x-------|

E-3-3-/-3--11-11-11-11-11-------|

 

G5 Bb5

 

E---------------------------------|

B---------------------------------|

G---------------------------------|

D-5-/----13-13----13--5-5---5---5-|

A-x-------------------x-x---------|

E-3-/-11-------11-----3-3-3---3---|

 

 

chorus:

 

G5 Eb5

 

E-----------------------------------------------------|

B-----------------------------------------------------|

G-----------------------------------------------------|

D----10--/-12~~~---12~~~\10------10^1/2 bend/release--|

A-----------------------------------------------------|

E-----------------------------------------------------|

 

 

 

brige:

"to be perfect just like you" [main riff of machinehead, just a 1/2 step higher]

 

E-------------------------------|

B-------------------------------|

G-7-7-7-9-9-9-10--12--12--12----|

D-x-x-x-x-x-x--x---x---x---x----|

A-5-5-5-7-7-7--8--10--10--10----|

E-------------------------------|

 

 

outro - repeat - with some phaser type effect thing or just use some tremolo picking, which sounds cool

 

 

E-------------------------------|

B-------------------------------|

G-12--/--10---------------------|

D-------------------------------|

A-------------------------------|

E-------------------------------|

 

*englishfire1@aol.com

 

 

Return to my to my Bush tabs page

The Tablature is Copyright its respective owners.

Sign Up For My Newsletter
Subscribe | Unsubscribe

Site Map | Disclaimer | Privacy Policy | Media Kit | Submissions/Corrections

Website © 2000-2014 mattsmusicpage.com. All rights reserved.

Legal & DMCA: Matt's Music Page has been providing lyrics and tabs in a legal way, paying royalties each year to a few organizations. Then, all lyrics and tabs were removed from the site. Now, there's a new owner to the site, which purchased it August 26, 2014, and he is in negotiation to obtain licensing from BMI at the moment. If you have a specific DMCA request -- please do not hesitate to contact me via the contact button on top. I will do my very best to keep this site fully legal.

Get our toolbar!