Your One-Stop Source For
Music Lyrics
Bass and Guitar Tabs
and More...
Music Lyrics Bass and Guitar Tabs

The Tabs Are Below

Learn To Read Tab
Chords Handbook
Corrections & Additions
Get Official Tab
Bush tabs @ 911Tabs

insect kin

 

intro: repeat several times (this part is kinda hard to tab cuz of the rhythm)

E-----------------------------------------------------------|

B-----------------------------------------------------------|

G-----------------------------------------------------------|

D-----------------------------------------------------------|

A--12-x-12-x-12-x-12-x-12-12--10-x-10-x-10-x-10-10----------|

E-----------------------------------------------------------|

 

near the end of the intro play this:

E------------------------------------------------------------------------------|

B------------------------------------------------------------------------------|

G------------------------------------------------------------------------------|

D------------------------------------------------------------------------------|

A--12--12--12--12--12--12--12--12-x--8--8--8--8--8--8--8--8--------------------|

E------------------------------------------------------------------------------|

 

Chords after intro (all power chords):

A G

 

Chorus

E----------------------------------------------------|

B----------------------------------------------------|

G----------------------4--4--4--4--4--4--4--4--------|

D----7--7--7--7--7-----------------------------------|

A----7--7--7--7--7-----------------------------------|

E----5--5--5--5--5-----------------------------------|

 

then play F# and G power chords a couple times...listen to song for rhythm

 

bass riff for guitar (play 4x):

E----------------------------------------------------|

B----------------------------------------------------|

G----------------------------------------------------|

D----------------------------------------------------|

A----------------------------------------------------|

E----3--4--5--3--4--5--3--5--------------------------|

 

solo type thing (repeat):

E---------------------------------------------------------------|

B------------------------------------------------6--6-----------|

G----2----x----7^1/2----x--7^1/2--x---5--5--7^1/2---------------|

D----2----------------------------------------------------------|

A----0----------------------------------------------------------|

E---------------------------------------------------------------|

 

 

 

*englishfire1@aol.com

 

 

Return to my to my Bush tabs page

The Tablature is Copyright its respective owners.

Sign Up For My Newsletter
Subscribe | Unsubscribe

Site Map | Disclaimer | Privacy Policy | Media Kit | Submissions/Corrections

Website © 2000-2014 mattsmusicpage.com. All rights reserved.

Legal & DMCA: Matt's Music Page has been providing lyrics and tabs in a legal way, paying royalties each year to a few organizations. Then, all lyrics and tabs were removed from the site. Now, there's a new owner to the site, which purchased it August 26, 2014, and he is in negotiation to obtain licensing from BMI at the moment. If you have a specific DMCA request -- please do not hesitate to contact me via the contact button on top. I will do my very best to keep this site fully legal.

Get our toolbar!